Chordie logo

Me Out Of Me  Alexz Johnson

e--2-2-2-3-2--2-2-2-3-2--2-2-2-3-2--0-0-0-0-0-0-0---|  -----|


b--3-3-3-3-3--3-3-3-3-3--3-3-3-3-3--2-2-2-2-2-2-2---|       |


g--2-2-2-2-2--2-2-2-2-2--2-2-2-2-2--2-2-2-2-2-2-2---|       |x2


d--0-0-0-0-0--0-0-0-0-0--0-0-0-0-0--2-2-2-2-2-2-2---|       |


a--0-0-0-0-0--0-0-0-0-0--0-0-0-0-0--0-0-0-0-0-0-0---|       |


e--0-0-0-0-0--0-0-0-0-0--0-0-0-0-0--0-0-0-0-0-0-0---|  -----|







e--2-2-2-3-2--0-0-0-0-0-0-0-|


b--3-3-3-3-3--2-2-2-2-2-2-2-|


g--2-2-2-2-2--2-2-2-2-2-2-2-|


d--0-0-0-0-0--2-2-2-2-2-2-2-|


a--0-0-0-0-0--0-0-0-0-0-0-0-|


e--0-0-0-0-0--0-0-0-0-0-0-0-|





e--2-2-2-3-2--0-0-0-0-0-0-0-|


b--3-3-3-3-3--2-2-2-2-2-2-2-|


g--2-2-2-2-2--2-2-2-2-2-2-2-|


d--0-0-0-0-0--2-2-2-2-2-2-2-|


a--0-0-0-0-0--0-0-0-0-0-0-0-|


e--0-0-0-0-0--0-0-0-0-0-0-0-|





Th[D]ere's something you should know
I w[A]on't change and I'm not letting go
The[Bm]re's something you will see
You [G]can't turn down cuz I'm br[E]eakin free ya               [A]



(Chorus)
You[D] just can't take the me out of me   [A]                [Bm]
Cu[G]z that's what I need t[E]he world to see     [A]
You[D] just can't take the me out of me     [A]                  [Bm]
Oh [G]there's no one else I'd ra[E]ther be         [A]


e--2-2-2-3-2--2-2-2-3-2--2-2-2-3-2--0-0-0-0-0-0-0---|
b--3-3-3-3-3--3-3-3-3-3--3-3-3-3-3--2-2-2-2-2-2-2---|
g--2-2-2-2-2--2-2-2-2-2--2-2-2-2-2--2-2-2-2-2-2-2---|
d--0-0-0-0-0--0-0-0-0-0--0-0-0-0-0--2-2-2-2-2-2-2---|
a--0-0-0-0-0--0-0-0-0-0--0-0-0-0-0--0-0-0-0-0-0-0---|
e--0-0-0-0-0--0-0-0-0-0--0-0-0-0-0--0-0-0-0-0-0-0---|




I won’t change my hair I don’t care if you call me a freak (freak)
e--2-2-2-3-2--0-0-0-0-0-0-0-|
b--3-3-3-3-3--2-2-2-2-2-2-2-|
g--2-2-2-2-2--2-2-2-2-2-2-2-|
d--0-0-0-0-0--2-2-2-2-2-2-2-|
a--0-0-0-0-0--0-0-0-0-0-0-0-|
e--0-0-0-0-0--0-0-0-0-0-0-0-|




Won’t change my attitude No I’ll never change the way that I speak
e--2-2-2-3-2--0-0-0-0-0-0-0-|
b--3-3-3-3-3--2-2-2-2-2-2-2-|
g--2-2-2-2-2--2-2-2-2-2-2-2-|
d--0-0-0-0-0--2-2-2-2-2-2-2-|
a--0-0-0-0-0--0-0-0-0-0-0-0-|
e--0-0-0-0-0--0-0-0-0-0-0-0-|





Th[D]ere's something you should know
I w[A]on't change and I'm not letting go
The[Bm]re's something you will see
You [G]can't turn down cuz I'm br[E]eakin free ya               [A]



(Chorus)
You[D] just can't take the me out of me   [A]                [Bm]
Cu[G]z that's what I need t[E]he world to see     [A]
You[D] just can't take the me out of me     [A]                  [Bm]
Oh [G]there's no one else I'd ra[E]ther be         [A]




Can’t make me won’t make me can’t shake me
E—9--------------------------------------|
b----------------------------------------|



Won’t break me down Won’t break me down
e--2--2-2-2-3--2-2-2-3---2-2-2-3---2-2-2-3---2-2-2-|
b--3-3-3-3-3--3-3-3-3---3-3-3-3---3-3-3-3---3-3-3--|





You[D] just can't take the me out of me   [A]                [Bm]
Cu[G]z that's what I need t[E]he world to see     [A]
Y[D]a, ya, ya, ya, ya, ya, ya, [A]ya, ya, ya, ya, ya, ya, ya, ya, ya[Bm]
Oh[G] there’s no one e[E]lse I’d rather be       [A]



e--2-2-2-3-2--2-2-2-3-2--2-2-2-3-2--0-0-0-0-0-0-0-0-X-|
b--3-3-3-3-3--3-3-3-3-3--3-3-3-3-3--2-2-2-2-2-2-2-2-X-|
g--2-2-2-2-2--2-2-2-2-2--2-2-2-2-2--2-2-2-2-2-2-2-2-X-|
d--0-0-0-0-0--0-0-0-0-0--0-0-0-0-0--2-2-2-2-2-2-2-2-X-|
a--0-0-0-0-0--0-0-0-0-0--0-0-0-0-0--0-0-0-0-0-0-0-0-X-|
e--0-0-0-0-0--0-0-0-0-0--0-0-0-0-0--0-0-0-0-0-0-0-0-X-| 

Important: The song above is NOT stored on the Chordie server. The original song is hosted at www.guitaretab.com. Chordie works as a search engine and provides on-the-fly formatting. Chordie does not index songs against artists/composers will. To remove this song please click here.

A Bm D E G
variations - click chord images

Login - add to songbook

Transpose chords

Tuning

Rating click stars to rate

Layout
Accuracy

SHARE PAGE  

You need to log in to post comments