Guitar Tabs, Chords and Lyrics


Crazy Little Child   Alice Cooper



Band: Alice Cooper
Song: Crazy Little Child
Album: Muscle of Love
Year: 1973
Tabbed by DoteStudios
Email is manbearpigisreal@gmail.com

Piano part coming soon...

Keys
b = bend
r = release
\ = slide up neck 
/ = slide down neck
h = hammer-on
p = pull-off
~ = hold note
w = whammy bar
v = vibrato
t = trill (very fast hammer-ons)

Clarinet Solo
E--------------------------------------9--------------10-10--10-10--10|
B----10-----11-----10-----11-----10------11-13-11--11-----------------|
G-12-----12-----12-----12-----12----12--------------------------------|
D---------------------------------------------------------------------|
A---------------------------------------------------------------------|
E---------------------------------------------------------------------|

E-10--10-10--10-10----------------------------------------------------|
B------------------13--13-11-13------11--10---------------------------|
G---------------------------------12--------12-10---------------------|
D-------------------------------------------------13--10-12--10----10-|
A---------------------------------------------------------------13----|
E---------------------------------------------------------------------|

E---------------------------------------------------11-10-|
B--------------11--10-----10-11--10----------10-13--------|
G---------------------12-------------12--11---------------|
D-12-----10-12--------------------------------------------|
A-----13--------------------------------------------------|
E---------------------------------------------------------|

Guitar Solo
E--------------------------------------------------15-18-15-----------|
B--------------------------------------------------15-------18-15-----|
G-----15-17-17b19~~19r17-15-17-15-17p15----15--17--15-------------18--|
D-/17-----------------------------------17----------------------------|
A---------------------------------------------------------------------|
E---------------------------------------------------------------------|

E---------------------------------------------------------------------|
B---------------------------------------------------------------------|
G-17-15--------------------15----17b19-17b19~~19p17----19-17----------|
D-------17-15-15h17--15h17----17--------------------17-------17-15----|
A---------------------------------------------------------------------|
E---------------------------------------------------------------------|

E----------------------------------------------------------15-18-20/22|
B----------------------------------------------------15-18------------|
G-------15-------------------------------------15-17------------------|
D-15h17----17-15-------------------------15-17------------------------|
A----------------17-16-15\---------15-17------------------------------|
E---------------------------/15-18------------------------------------|


Important: The song above is NOT stored on the Chordie server. The original song is hosted at www.guitaretab.com. Chordie works as a search engine and provides on-the-fly formatting. Chordie does not index songs against artists/composers will. To remove this song please click here.

This song is displayed as text-only. Transposing and tuning is only available for chordpro-songs.

Login - add to songbook

Rating click stars to rate

Layout
Accuracy

SHARE PAGE  




You need to log in to post comments