Chordie logo


Would Acoustic   Alice In Chains



e-----------|
b-----5-----|
g--6--------|
d-----------|
a-----------|
e-----------|

e---------------------------------------|
b-----------------------------------5---|
g--4h6-4h6--4-4---4h6-4h6--4-4----4-----|
d--4---4----4-5---4---4----4-5--5-------|
a---------------------------------------|
e---------------------------------------|

e---------------------------------------|
b---------------------------------------|
g--4h6-4h6--4-4---4h6-4h6--4-4----------|
d--4---4----4-5---4---4----4-5------2---|
a---------------------------------2-----|
e-------------------------------3-------|

e-----------------------------------|
b-----------------------------------|
g-----------------------------------|
d-------------------------------2---|
a--2h4-2h4-2-2--2h4-2h4-2-2----2----|
e--2---2---2-3--2---2---2-3--3------|

e------------------3-3-3--3-3-3-3-3-3--3-3-3-3-3-|
b------------------3-3-3--3-3-3-3-3-3--3-3-3-3-3-|
g--4-4-4-4-4--4-4--0-0-0--0-0-0-0-0-0--0-0-0-0-0-|
d--4-4-4-4-4--4-4--0-0-0--0-0-0-0-0-0--0-0-0-0-0-|
a--2-2-2-2-2--2-2--2-2-2--2-2-2-2-2-2--2-2-2-2-2-|
e------------------3-3-3--3-3-3-3-3-3--3-3-3-3-3-|
               solo
e--------------------------------------------------------------|
b--------------------------------------------------------------|
g--------------------------------------11v----9-11--11br--11v--|
d--9h11p9h11p9h11p9h11p9h11p9h11p9h11--------------------------|
a--------------------------------------------------------------|
e--------------------------------------------------------------|

e-----------------------------------------------------|
b-----------------------------------------------------|
g--9-11-9-11-9----------------------------------------|
d---------------11v----11-9--9br--11p9---7v--4v--4-4--|
a--------------------------------------9--------------|
e-----------------------------------------------------|

e---------------------5----8b-8b--7p5---5v--|
b------------5-7-7--7-----------------7-----|
g--------4s6--------------------------------|
d--4h6-7------------------------------------|
a-------------------------------------------|
e-------------------------------------------|

e--2---2-2-2-------------------------4-4--4--4--4-4-4-4--|
b--3---3-3-3--6-6-6--6-6-------------4-4--4--4--4-4-4-4--|
g--2---2-2-2--5-5-5--5-5-------------5-5--5--5--5-5-5-5--|
d--0---0-0-0--4-4-4--4-4-------------6-6--6--6--6-6-6-6--|
a-------------5-5-5--5-5--5-5--5--5--6-6--6--6--6-6-6-6--|
e---------------------------4--4--4--4-4--4--4--4-4-4-4--|

e--------3--3-3--3-3--3--3-3-3-3--------------------------------|
b--------3--3-3--3-3--3--3-3-3-3--------------------------------|
g--------4--4-4--4-4--4--4-4-4-4---1-1--1-1-1--1-1--1--1-1-1-1--|
d--------5--5-5--5-5--5--5-5-5-5---2-2--2-2-2--2-2--2--2-2-2-2--|
a--5--5--5--5-5--5-5--5--5-5-5-5---2-2--2-2-2--2-2--2--2-2-2-2--|
e--3--3--3--3-3--3-3--3--3-3-3-3---0-0--0-0-0--0-0--0--0-0-0-0--|

e---------------------------------------------------------|
b----6-----------6-----------6-----------6-----------6----|
g----5-----------5-----------5-----------5-----------5----|
d----4-----------4-----------4-----------4-----------4----|
a----5-----------5-----------5-----------5-----------5----|
e---------------------------------------------------------|


Important: The song above is NOT stored on the Chordie server. The original song is hosted at www.guitaretab.com. Chordie works as a search engine and provides on-the-fly formatting. Chordie does not index songs against artists/composers will. To remove this song please click here.

This song is displayed as text-only. Transposing and tuning is only available for chordpro-songs.

Login - add to songbook

Rating click stars to rate

Layout
Accuracy

SHARE PAGE  




You need to log in to post comments