Chordie logo

Shunkashuutou   Alice Nine



title: Shunkashuutou
artist: Alice Nine
album: Alice in WondeRland
track number: 7
tabbed by: LadyRebel99

..........................................
INTRO:
Gtr1:
 F#m  F    A#   G#
|----|----|----|----|

 F#m  F    A#
|----|----|----|----|

 F#m  F    A#   G#
|----|----|----|----|

then
Gtr1:
  F#m-G#-break
e|------|
B|------|
G|------|
D|-44p-6
A|-44p-6
E|-22p-4~

Gtr1&2:
  F#m   G#   F#m    G#         F#m   G#
e|-------------------------------------------------------|
B|----8s10~-------8s10~11s12p10----8s1010101010p11s12p10-|
G|7767-------7767--------------7767----------------------|
D|-------------------------------------------------------|
A|-------------------------------------------------------|
E|-------------------------------------------------------|

(continued)
  A#        F#m
e|-------------|
B|-10-8-7p5p3~-|
G|8------------|
D|-------------|
A|-------------|
E|-------------|

..........................................
(both guitars pause)
VERSE1:
Gtr2:

G|------------|
D|------------|
A|--------4---|
E|0-22-444-22-|
Haru wa mimi wa nadate

G|-----------------|
D|-----------------|
A|---------4-4s6-4-|
E|0-22-1-22--------|
Natsu wa kami wo soyogu

G|------------|
D|------------|
A|--------4---|
E|0-22-444-22-|
Aki no someta iro ni

G|--------------|
D|--------------|
A|--------------|
E|0-22-444-1-22-|
Fuyu ni tachi tsukusu

..........................................
Gtr1:
e|----------------|
B|--6p46-44-xxx-6-|
G|66--------------|
D|66--------------|
A|44--------------|
E|----------------|
Muryoku datta bokura wa

e|--------------------|
B|--6p46-x-6-2~2h4-22-|
G|66------------------|
D|66------------------|
A|44------------------|
E|--------------------|
Shudan wo sagashite ita

e|----------------|
B|--6p46-44-xxx-6-|
G|66--------------|
D|66--------------|
A|44--------------|
E|----------------|
Jibun ga tobudake no

e|--------------------|
B|--6p46-x-6-2~2h4-22-|
G|66------------------|
D|66------------------|
A|44------------------|
E|--------------------|
Asu he no tsubasa wo

Gtr2:
e|--------|
B|5-4p4-2-|
G|--------|
D|--------|
A|--------|
E|--------|


REFRAIN:
Gtr1&2:
 F#m F          A# G#-F#m    C#
e|--4~--4~-----------------------|
B|-------------------------------|
G|---------------------------666-|
D|4~--3~---------8~-6~-4~----666-|
A|4~--3~---------8~-6~-4~----444-|
E|2~--1~---------6~-4~-2~--------|

Yurete, Yurarete Habatake'ru toki made, Yeah...

(both guitars pause)
"Fui ni ochita shisen no saki Doko he dokomade arukeba?"

  C#
e|-----
B|-----
G|66p6-
D|66p6-
A|44p4-
E|-----

CHORUS1:
Gtr1&2:
  F#m-F-A#-G#
e|---9----
B|7h9-9h7-
G|--------|  (4x)
D|--------|
A|--------|
E|--------|
 Fusaideta beroa no yori mo
 Ashita wo mukae ga kuru kara
 Mabayakutte toki suru dekinai
 Kagayakeru kono hibi wa

G|-----------|
D|-----------|
A|9-7-8-8----|
E|-----9-9-7-|

Gtr1:
*CRUNCH
  D        A        B
e|-----------------------------------|
B|-----------------------------------|
G|77777777---------------------------|
D|77777777-77777777-9999999999999999-|
A|55555555-77777777-9999999999999999-|
E|---------55555555-7777777777777777-|
 Haru ni saita yume wo natsu wa yume miteta

(continued)
  D        A        B
e|-----------------------------------|
B|-----------------------------------|
G|77777777---------------------------|
D|77777777-77777777-99999999~xxxx----|
A|55555555-77777777-99999999~xxxx----|
E|---------55555555-77777777~xxxx----|
 Aki ni omoi meguri fuyu ni kotae sagashite

...........................................

F#m        F      A#
Bokura wa egai ta mirai wo yosozosu wo
F#m           F       A#
Kimama ni tobidakute omoi egai ta


REFRAIN:
Gtr1&2:
 F#m F          A# G#-F#m    C#
e|--4~--4~-----------------------|
B|-------------------------------|
G|---------------------------666-|
D|4~--3~---------8~-6~-4~----666-|
A|4~--3~---------8~-6~-4~----444-|
E|2~--1~---------6~-4~-2~--------|

Yurete, Yurarete Habatake'ru toki made, Yeah...


(both guitars pause)
"Itsuka, itsumade waraemasu ka?
Doko he dokomade hashitte..."

  C#
e|-----
B|-----
G|66p6-
D|66p6-
A|44p4-
E|-----

CHORUS2:
Gtr1&2:
  F#m-F-A#-G#
e|---9----
B|7h9-9h7-
G|--------|  (4x)
D|--------|
A|--------|
E|--------|
 Haru ga kitara owakareda ne to?
 Tsubuyaita gogo no kaerimichi

 Kono yume wa owarasetakunai
 Kane no naru oto no shita.

...........................................
GUITAR SOLO:


Gtr2:
  F#m-F--A#--A#-G#F#m-|G#
e|--------------------|
B|--------------------|
G|--------------------|
D|4---3s-8---8s6s4-66-|
A|4---3s-8---8s6s4-66-|
E|2---1s-6---6s4s2-44-|


  F#m
e|-----
B|-----
G|-----
D|4444-
A|4444-
E|2222-

Gtr1:

 F#m  F   A#   G#
|----|----|----|----|

e|-13s16-16~~---------16-16s18-16----|
B|------------14-13h14-----------14~-|
G|-----------------------------------|
D|-----------------------------------|
A|-----------------------------------|
E|-----------------------------------|

(continued)
e|--------------13~--16p13-11-13---11--------------------------------|
B|11s13-13-14-16---------------------14-13-14-13-11------------------|
G|-------------------------------------------------13-12-13-15-13----|
D|---------------------------------------------------------------15~-|
A|-------------------------------------------------------------------|
E|-------------------------------------------------------------------|

(continued)
e|-------------------------------------------|
B|-----------10h11-9----------------10h11-9--|
G|-------------------------------------------|
D|10h11-10-11------------11h10-10-11---------|
A|-------------------------------------------|
E|-------------------------------------------|

(continued)
e|---------------------------|
B|-----9-----------9h11-9~---|
G|10-11--------7s10----------|
D|------11~10~---------------|
A|---------------------------|
E|---------------------------|

Gtr2:
e|------------|
B|------------|
G|------------|
D|8s7-x-6-x-5-|
A|8s7-x-6-x-5-|
E|6s5-x-4-x-3-|

...........................................

REFRAIN:
Gtr1&2:
  F#m           F             A#   G#    F#m
e|-------------------------------------------|
B|-------------------------------------------|
G|-------------------------------------------|
D|4~-4-xxxxxxxx-3~-3-xxxxxxx3s8-xxx-6-xxx-4~-|
A|4~-4-xxxxxxxx-3~-3-xxxxxxx3s8-xxx-6-xxx-4~-|
E|2~-2-xxxxxxxx-1~-1-xxxxxxx1s6-xxx-4-xxx-2~-|

  C#
e|----
B|----
G|666-
D|666-
A|444-
E|----

(both guitars pause)
"Koe wa kimi ni todokimasu ka?
Sora ni hibiku uta-koe wo"

  C#
e|--------|
B|--------|
G|66-6666-
D|66-6666-
A|44-4444-
E|--------

(breaking glass)

...........................................

CHORUS3:
Gtr1&2:
  F#m-F-A#-G#
e|---9----
B|7h9-9h7-
G|--------|  (16x)
D|--------|
A|--------|
E|--------|
 Yurarete ta chiisana omoi wa oozora ni yume wo egaku kara
 Kono yume wa owarasetkunai kotoba wa mou iranai
 Asu wanai ka mo shirenai? Ima dakara kokoro kara ieru yo
 Kitto tadori tsuku basho he kimi to wo ieru youni...

...........................................

OUTRO:
Gtr1:
*CRUNCH

  F#m      F        A#       G#
e|------------------------------------|
B|------------------------------------|
G|------------------------------------|
D|44444444-33333333-88888888-66666666-|
A|44444444-33333333-88888888-66666666-|
E|24444444-11111111-66666666-44444444-|

  F#m      F
e|------------------|
B|------------------|
G|------------------|
D|44444444-33333333-|
A|44444444-33333333-|
E|24444444-11111111-|


then
  A#
e|---
B|---
G|---
D|8~-
A|8~-
E|6~-

...........................................

*Hope you all like it and please rate on my tab.
*Send your comments or suggestions to my yahoo/friendster email add:

*Credits to:
  camille rivera



Important: The song above is NOT stored on the Chordie server. The original song is hosted at www.guitaretab.com. Chordie works as a search engine and provides on-the-fly formatting. Chordie does not index songs against artists/composers will. To remove this song please click here.

This song is displayed as text-only. Transposing and tuning is only available for chordpro-songs.

Login - add to songbook

Rating click stars to rate

Layout
Accuracy

SHARE PAGE  



You need to log in to post comments