Guitar Tabs, Chords and Lyrics


Oblivion  Alistair Griffin

  [Dadd2]              [E7]              [Dadd2]      [E7] 
E|--------0----|-------------|--------0----|-------------|
B|-----3---3---|--------0----|-----3---3---|--------0----|
G|----2-------2|-----1------1|----2-------2|-----1------1|
D|-0-----------|----0--------|-0-----------|----0--------|
A|-------------|-------------|-------------|-------------|
E|-------------|-0-----------|-------------|-0-----------|



CHORUS PATTERN:

[B7]               [B7]              [D]      [D] [A] 
E|-------------|-------------|-----2------2|-----2------2|-------------|
B|--------0----|--------0----|--------3----|--------3----|-----2------2|
G|-----2---2---|-----2---2---|----2----2---|----2----2---|--------2----|
D|----1-------1|----1-------1|-0-----------|-0-----------|----2----2---|
A|-2-----------|-2-----------|-------------|-------------|-0-----------|
E|-------------|-------------|-------------|-------------|-------------|


Play this twice, then:

  [B7]              [B7]              [D]      [D] 
E|-------------|-------------|-----2------2|-------------|
B|--------0----|--------0----|--------3----|-------------|
G|-----2---2---|-----2---2---|----2----2---|-------------|
D|----1-------1|----1-------1|-0-----------|-0-----------|
A|-2-----------|-2-----------|-------------|-------------|
E|-------------|-------------|-------------|-------------|



WHOLE SONG:

INTRO:

 Dadd2 - - | E7 - - | Dadd2 - - | E7 - - ||  x3



I[Dadd2]'m drifting [E7]down
While you [Dadd2]scream past my [E7]head
F[Dadd2]ire away, [E7]fly away
I [Dadd2]wonder what you [E7]said
 Dadd2 - - | E7 - - | Dadd2 - - | E7 - - ||



And [Dadd2]i'm watching [E7]you
Bare your [Dadd2]teeth in a [E7]growl
T[Dadd2]hrowing your w[E7]ay
Back and [Dadd2]forth 'til [E7]now
Dadd2 - - | E7 - - ||


And [B7]i'm here in o[D]blivion
I don't feel [A]anything
W[B7]hen, it's time to be[D]gin again
I won't r[A]emember [B7]anythi[D]ng at [E7]all
(Here the main pattern appears reversed, with the E7 before the Dadd2, not after)

(E7) - - | Dadd2 - - ||

 E7 - - | Dadd2 - - | E7 - - | Dadd2 - - || x2



[E7]Could it be s[Dadd2]omething [E7]that i [Dadd2]said
That's [E7]making you[Dadd2] put poison [E7]pins in my [Dadd2]bed
[E7]And i would feel [Dadd2]sorry [E7]if i [Dadd2]could
So [E7]fire away, [Dadd2]fly away, if [E7]you think you [Dadd2]should
[E7]I'm in o[Dadd2]blivion
[E7]I'm in o[Dadd2]blivion
[E7]I'm in o[Dadd2]blivion
[Dadd2]'blivion, [Dadd2]'blivion, [E]i'm...
(End of song)

Hope you enjoy! It's a lot of fun to play and sing.

Peace, Lukewa

Important: The song above is NOT stored on the Chordie server. The original song is hosted at www.guitaretab.com. Chordie works as a search engine and provides on-the-fly formatting. Chordie does not index songs against artists'/composers' will. To remove this song please click here.

Text color:
Chord color:
Chord grids: 
Font size:    
Page size: 

A B7 D Dadd2 E E7
variations - click chord images

Login - add to songbook

Transpose chords

Tuning

Rating click stars to rate

Layout
Accuracy

SHARE PAGE  




You need to log in to post comments