Guitar Tabs, Chords and Lyrics


All On Black Acoustic   Alkaline Trio



-----------------------------------------------------------------------------
			     All on black (acoustic) - Alkaline trio
-----------------------------------------------------------------------------
Tabbed by:Eternal_flame

Tuning: Guitar 1-standard
        Guitar 2-standard

Intro-

Guitar 1
e|-------------------------|------------------------|
B|-------------------------|------------------------|
G|--99-77-55-22-1-0-5------|-99-77-55-22-1-0-5------|
D|--77-77-55-22-0-0-3------|-77-77-55-22-0-0-3------|
A|-------------------------|------------------------|
E|-------------------------|------------------------|

Guitar 2
e|--------------------------|-8888777755553333---|
B|--------------------------|--------------------|   Listen to the song for
G|--------------------------|--------------------|   The rhythm
D|--------------------------|--------------------|
A|--7777777777777777333333--|--------------------|
E|--5555555555555555111111--|--------------------|

Verse

Guitar 1
e|----------------------------|------------------------------------------|
B|----------------------------|------------------------------------------|
G|--99999999------------------|--99999999--------------------------------|
D|--777777771010101010101010--|--7777777710101010101010101212121212121212|
A|-----------8-8-8-8-8-8-8-8--|-----------8-8-8-8-8-8-8-81010101010101010|
E|----------------------------|------------------------------------------|

Guitar 2
e|--------------------|-----------------------------|
B|--------------------|-----------------------------|
G|--------------------|-----------------------------|
D|--------------------|-----------------------------|
A|--7777777733333333--|--777777773333333355555555---|
E|--5555555511111111--|--555555551111111133333333---|

Chorus

Guitar 1
e|-------------------------------------------------------------------|
B|-------------------------------------------------------------------|
G|-12121212121212121010101010101010----------------------------------|
D|-1010101010101010101010101010101010101010101010101212121212121212--|
A|----------------------------------8-8-8-8-8-8-8-81010101010101010--|
E|-------------------------------------------------------------------|

Guitar 2
e|------------------------------------------|
B|------------------------------------------|
G|------------------------------------------|
D|--5555555555555555------------------------|
A|--33333333333333337777777733333333--------|
E|------------------5555555511111111--------|

Bridge

First part-

Guitar 1 + 2
e|--------------------------------------------------------------------|
B|--------------------------------------------------------------------|
G|--------------------------------------------------------------------|
D|--5555555555555555--------------------------------------------------|
A|--3333333333333333333333333333333377777777777777775555555533333333--|
E|------------------111111111111111155555555555555553333333311111111--|

Second part

Guitar 1  (not sure about this part)
e|-----------------------|
B|-----------------------|
G|--121212101010-9-9-----|
D|--1010101010101010-----|
A|-----------------------|
E|-----------------------|

Guitar 2
e|------------------------------------------|
B|------------------------------------------|
G|------------------------------------------|
D|--5555555555555555------------------------|
A|--33333333333333337777777733333333--------|
E|------------------5555555511111111--------|


Important: The song above is NOT stored on the Chordie server. The original song is hosted at www.guitaretab.com. Chordie works as a search engine and provides on-the-fly formatting. Chordie does not index songs against artists/composers will. To remove this song please click here.

This song is displayed as text-only. Transposing and tuning is only available for chordpro-songs.

Login - add to songbook

Rating click stars to rate

Layout
Accuracy

SHARE PAGE  




You need to log in to post comments