Chordie logo

No Business To Be Done On A Dead Planet   All Shall Perish



for this first part on not gonna bother writing out the triplets becuase there is to
and im lazy.  but this tab is 100% accurate becuase their touring guitarist ian webb is my
friend and he taught it to me and ben from all shall perish taught it to him.  youll 
that this tab is a lot harder to play than you think it is but its all tabbed out
so be patient and here it is
enjoy!

t=tap with pick
.= palm mute


|-------|
|-------|
|---7---|
|---6---|
|---5---|
|---0---|


i dont want to write the triplets for this part so any open notes you see are triplets.
|-------------------------------------------------------------------|
|----------------------------------------------9-6--8-5-8-5---------|
|----------------------8-5-----------------8-5----------------------|
|------9-6---------9-6-----------------9-6--------------------------|
|--8-5---------8-5------------8-5---8-5-----------------------------|
|0-----------0--------------0-----0---------------------------------|
 . . .       . . .          .     .
there are no pulloffs in the intro even though it sounds like it. every note is picked individually
reapeat the above 4 times and then go to the transition below

|--------------------------------------------------------------------------|
|--------------------------------------------------------------------------|
|--------------------------------------------------------------------------|
|-12-8--------11-7--------10-6--------9-6----------------------------------|
|-------12-8--------11-7--------10-6-------9-6-----------------------------|
|--------------------------------------------------------------------------|
        .  .         . .        .  .

|---------------------------------------|
|---------------------------------------|
|---------------------------------------|
|-----------8-12-11-7-------------------|   x1
|----0-8-12-----------11-7-0-7-8-10-8-7-|
|--0------------------------------------|

the first time you play this you hit the first open note but after the first time the
note on the bottom string changes to a 5 on the 5th string like below.


|---------------------------------------|
|---------------------------------------|
|---------------------------------------|
|-----------8-12-11-7-------------------|  x3
|--5-0-8-12-----------11-7-0-7-8-10-8-7-|
|---------------------------------------|

after the fouth time you play this you go directly into the part below.

|-----------------------------------|
|-----------------------------------|
|--10-5-6---5-----------------------|
|---------7---6-7-5-6---6-----------|
|---------------------7---7-8-5-7---|
|---------------------------------8-|


|--------------------------------------------------------------------------|
|--------------------------------------------------------------------------|
|--------------------------------------------------------------------------|
|--------------------------------------------------------------------------|
|----8-5-8-5---8-5-8-5-8-5-8-5---8-5-8-5---8-5-8-5-8-5-8-5---8-5-8-5-------|
|--0---------0-----------------0---------0-----------------0---------0-----|
   . . . . . . . . . . . . . . . . . . . . . . . . . . . . . . . . . .
|------------------------------------|
|------------------------------------|
|--------------------------7t10-6t9--|

|----------------------6t9-----------|
|--8-5-8-5-8-5-8-5-5t8---------------|
|------------------------------------|
   . . . . . . . . tap fast with pick


the rest of the song is basically the break down and everything above repeated so you
figure out the breakdown.  its simple enough.



Important: The song above is NOT stored on the Chordie server. The original song is hosted at www.guitaretab.com. Chordie works as a search engine and provides on-the-fly formatting. Chordie does not index songs against artists/composers will. To remove this song please click here.

This song is displayed as text-only. Transposing and tuning is only available for chordpro-songs.

Login - add to songbook

Rating click stars to rate

Layout
Accuracy

SHARE PAGE  

You need to log in to post comments