Guitar Tabs, Chords and Lyrics


Forever Young  Alphaville

  [C]               [G]              [Am]     [F] 
e|-------0-----|-------3-----|-------0-----|-------1-----|

b|-------1-----|-------0-----|-------1-----|-------1-----|
g|-0--0--0--0--|-------0-----|-2--2--2--2--|-------2-----|
d|-2--2--2--2--|-0--0--0--0--|-2--2--2--2--|-3--3--3--3--|
a|-3--3--3--3--|-2--2--2--2--|-0--0--0--0--|-3--3--3--3--|
e|-------------|-3--3--3--3--|-------------|-1--1--1--1--|

  [G]              [Dm]              [F]      [Am] [G] 
e|-------3-----|-------1-----|-------1-----|-------0-----|

b|-------0-----|-3--2--2--2--|-------1-----|-------1-----|
g|-------0-----|-2--3--3--3--|-------2-----|-2--2--2-----|
d|-0--0--0--0--|-0--0--0--0--|-3--3--3--3--|-2--2--2--0--|
a|-2--2--2--2--|-------------|-3--3--3--3--|-0--0--0--2--|
e|-3--3--3--3--|-------------|-1--1--1--1--|----------3--|

Verse 1

[C]  Let's dance in [G]style, let's dance for [Am]a while
Heaven can [F]wait we're only watching the [G]skies
Hoping for the [Dm]best, but expecting the [F]worst
Are you gonna drop the [Am]bomb or [G]not?

Let us stay young or let us live forever
We don't have the power, but we never say never
Sitting in a sandpit, life is a short trip
The music's for the sadman


Can you imagine when this race is won
Turn our golden faces into the sun
Praising our leaders, we're getting in tune
The music's played by the madman

[C]  Forever [G]Young
I want to [Am]be Forever [F]Young
[G] Do you really want to [Dm]live forever?
[F] Forever[G], oh and ever
[C]  Forever [G]Young,
I want to [Am]be Forever [F]Young
[G]Do you really want to [Dm]live forever?
[F]   [G]  Forever [C]Young.

Some are like water, some are like the heat
Some are a melody and some are the beat
Sooner or later they all will be gone
Why don't they stay young?

It's so hard to get old without a cause
I don't want to perish like a fading horse
Youth's like diamonds in the sun
And diamonds are forever

So many adventures couldnt hapen today
So many songs we forgot to play
So many dreams swinging out of the blue
Oh let 'em come true

Chorus

Solo

Chorus

That's it, enjoy!

Important: The song above is NOT stored on the Chordie server. The original song is hosted at www.guitaretab.com. Chordie works as a search engine and provides on-the-fly formatting. Chordie does not index songs against artists'/composers' will. To remove this song please click here.

Text color:
Chord color:
Chord grids: 
Font size:    
Page size: 

Am C Dm F G
variations - click chord images

Login - add to songbook

Transpose chords

Tuning

Rating click stars to rate

Layout
Accuracy

SHARE PAGE  




You need to log in to post comments