Guitar Tabs, Chords and Lyrics


Jet Boy Blues  America

e|-------------------------7--5--3-------------------|


B|--0------0--1--1p0-------8--7--5-------------------|


G|---0--2---0--------2-0---9--7--5-------------------|

D|----0------0-------------9--7--5-------------------|
A|-------------------------7--5--3-------------------|
E|---------------------------------------------------|
[C]Jet b[D]oy b[Em]lue[Em]s  [D]yo[C]u st[C]eal and you t[D]hink that its r[Em]ight [Em]   [D]
Like a th[C]ief i[D]n the n[Em]igh[Em]t  [D]ah oh [C]yeah i'll [Am]tell you its true
you c[C]ome around w[D]ith your stories to t[Em]ell[Em]   [D]
I dont [C]hold but[D] i let yo[Em]u go[Em]   [D]
you kn[C]ow your f[D]alling under his s[Em]pell[Em]   [D]
dont let it[C] kill you
it'll only f[Am]ill you with lies
only cost[C] you your pride
jet boy b[Am]lues
chorus:
s[C]top,stop[D] while your still[Em] ahead
you've got[G7] alot to learn
[C]your still so yo[D]ung
listen to what your [Em]mama said

repeat with the other verses.

Solo
make this slide and the 2 hammer-ons very small
e|--------------------------------------------------------|
B|----------15--------------------------------------------|
G|----14b16----14b16r14-12~--------12~--12h14--12h14-12~--|
D|--------------------------14-/14------------------------|
A|--------------------------------------------------------|
E|--------------------------------------------------------|
e|--------------------------------------------------------|
B|--------------------------------------------------------|
G|--------------------------------------------------------|
D|--14-/14--12~----7-5-7-5--7b9-7-5-7-5-----------5-7-5---|
A|--------------------------------------7-7---5-7---------|
E|--------------------------------------------------------|
e|--------------------------------------------------------|
B|--------------------------------------------------------|
G|-----------------------------7-9-12~--14-12-14-14b16----|
D|---5h7~---5h7-5--5h7-5-7-7/9----------------------------|
A|--------------------------------------------------------|
E|--------------------------------------------------------|
e|--------------------------------------------------------|
B|--------------------------------------------------------|
G|--14b16-12~~~~~-----------------------------------------|
D|--------------------------------------------------------|
A|--------------------------------------------------------|
E|--------------------------------------------------------|


sings verses then fades out**

i hope this helped you! :D

Important: The song above is NOT stored on the Chordie server. The original song is hosted at www.guitaretab.com. Chordie works as a search engine and provides on-the-fly formatting. Chordie does not index songs against artists'/composers' will. To remove this song please click here.

Text color:
Chord color:
Chord grids: 
Font size:    
Page size: 

Am C D Em G7
variations - click chord images

Login - add to songbook

Transpose chords

Tuning

Rating click stars to rate

Layout
Accuracy

SHARE PAGE  




You need to log in to post comments