Guitar Tabs, Chords and Lyrics


Sandman  America

-------------------------------------------------------------------------------



[Am]Ain't it foggy outside
[F]all the planes have been [Em]grounded
[Am]ain't the fire inside
[F]let's all go stand around [Em]it
Pre-Chorus:
[Am]funny, I've been there
[D]and you've been here
[G]and we ain't had no time to [Am]drink that beer

Chorus:
'cause [Am]I understand you been [G]runnin from the man
that go[D]es by the name of the [Am]sandman
[Am]He flys the sky like an [G]eagle in the eye of a [D]hurricane that [Am]abandoned


e|-0----------------|----------------------|-------------------------------|
B|---3-1-0---0------|-----0-0h1-0----------|-----0---1-0---------0---1-0---|
G|---------2---2----|-0h2---------2-0------|-0h2---2-----2---0h2---2-----2-|
D|---------------2-2|-----------------2----|---------------2--------------2|
A|------------------|-------------------0-0|-------------------------------|
E|------------------|----------------------|-------------------------------|
e|-----------------3-3-3-|-----------------------------|-------------------|
B|-----0---1-0-----1-1-1-|-----------------------------|-------------------|
G|-0h2---2-----2---2-2-2-|-----------------------------|-------------------|
D|---------------2-2-2-2-|-----------------------------|-------------------|
A|---------------0-------|-----------------------3-----|-------------------|
E|-----------------------|-3-5-5--5--5-5--3-5-5----5-3-|-3-5-5--5--5-5-3-5-|
e|----------|--------------------------|-------------------|
B|----------|--------------------------|-------0-0--0--0-0-|
G|----------|---------------------5----|-----5-5-5--5--5-5-|
D|----------|-5-7-7--7--7-7-5-7-7---7-5|-5-7---7-7--7--7-7-|
A|----3-----|--------------------------|-------------------|
E|-5----5-3-|--------------------------|-------------------|
e|-3--3----3-3-3-3-3--3-3-3-|-3-3-3--3---3---3--3-|-3---3---3--3-3--3-3-3-|
B|-5--5----5-5-5-5-5--5-5-5-|-5-5-5--5---5---5--5-|-5---5---5--5-5--5-5-5-|
G|--------------------------|---------------------|-----------------------|
D|--------------------------|---------------------|-----------------------|
A|--------------------------|---------------------|-----------------------|
E|--------------------------|---------------------|-----------------------|
e|-3-3-3--3----3-----3---3-|-0-0-0-0-0-0-0-0-0--------------------------|
B|-5-5-5--5----5-----5---5-|-------------------3------------------------|
G|-------------------------|---------------------2--2-2-2-2-2-2-2-2-2---|
D|-------------------------|--------------------------------------------|
A|-------------------------|------------------------------------------0-|
E|-------------------------|--------------------------------------------|
e|-0-0-0-0-x-0-0-0--0-------------------------|
B|--------------------3-----------------------|
G|----------------------2-2-2-2-2-2-2-2-2-2---|x2
D|--------------------------------------------|
A|------------------------------------------0-|
E|--------------------------------------------|
e|-0-0-0-0-0--0--0-0-0---------|
B|---------------------1--0----|
G|---------------------------2-|
D|-----------------------------|
A|-----------------------------|
E|-----------------------------|


Verse 2:
[Am]Ain't the years gone by fast
[F]I suppose you have [Em]missed them
[Am]and I almost forgot to ask
[F]did you hear of my [Em]enlistment

Pre-Chorus:
[Am]funny, I've been there
[D]and you've been here
[G]and we ain't had no time to [Am]drink that beer

Chorus:
'cause [Am]I understand you been [G]runnin from the man
that go[D]es by the name of the [Am]sandman
[Am]He flys the sky like an [G]eagle in the eye of a [D]hurricane that [Am]abandoned

Repeat Till Faded Out.
Thanks!

| / slide up
| \ slide down
| h hammer-on
| p pull-off
| ~ vibrato
| + harmonic
| x Mute note
===============================================================================

Important: The song above is NOT stored on the Chordie server. The original song is hosted at www.guitaretab.com. Chordie works as a search engine and provides on-the-fly formatting. Chordie does not index songs against artists/composers will. To remove this song please click here.

Text color:
Chord color:
Chord grids: 
Font size:    
Page size: 

Am D Em F G
variations - click chord images

Login - add to songbook

Transpose chords

Tuning

Rating click stars to rate

Layout
Accuracy

SHARE PAGE  




You need to log in to post comments