Chordie logo
content loaded from cache

Ventura Highway  America

|-5h7p5-------------------------5h7p5------------------------|


|-------7--5h7p5--------7-------------7--5h7p5--------7------|


|----------------6--6h7---7--------------------6--6h7---6----|


|------------------------------------------------------------|


|------------------------------------------------------------|


|------------------------------------------------------------|





|---------------------------3-----------------------------2--|


|---------------------------3-----------------------------2--|


|---------------------------0-----------------------------2--|


|---------------------------0-----------------------------0--|


|---------------------------2-----------------------------0--|


|---------------------------3----------------------------(2)-|

                            [G]        [Dmaj7] 

Intro (2nd way, the way I prefer to do):
Guitar I
|-5h7p5-2--0h2p0--------2-------5h7p5-2--0h2p0--------2------|
|----------------2--2h3---3--------------------2--2h3---2----|
|------------------------------------------------------------|
|------------------------------------------------------------|
|------------------------------------------------------------|
|------------------------------------------------------------|

| |
|Guitar II |
| * * |
|---------------------------3-----------------------------2--|
|---------------------------3-----------------------------2--|
|---------------------------0-----------------------------2--|
|---------------------------0-----------------------------0--|
|---------------------------2-----------------------------0--|
|---------------------------3----------------------------(2)-|

                            [G]        [Dmaj7] 
Chords:
[G] Chewin' on a piece of grass, walkin down the [Dmaj7]road
|-5h7p5-2--0h2p0--------2------2--3-5-|
|----------------2--2h3---3--5--------|
|-------------------------------------|
|-------------------------------------|
|-------------------------------------|

|-------------------------------------|


[G] Tell me, how long you gonna [Dmaj7]stay here Joe
|-5h7p5-2--0h2p0--------2---|
|----------------2--2h3---3-|
|---------------------------|
|---------------------------|
|---------------------------|
|---------------------------|


[G] Some people say, this town don't look [Dmaj7]good in snow
|-5h7p5-2--0h2p0--------2------2-|
|----------------2--2h3---3--5---|
|--------------------------------|
|--------------------------------|
|--------------------------------|
|--------------------------------|


[G] You don't care, I [Dmaj7]know
|-/14--12------------------|
|---------14-12--10--------|
|--------------------11----|
|-----------------------12-|
|--------------------------|
|--------------------------|



Chorus:
[G]Ventura Highway in the [Dmaj7]sunshine
Where the [G]days are longer, the nights are stronger than [Dmaj]moonshine
[G] You're gonna go, I [Dmaj7]kno-----[F#m]w

Cause the [Em]free wind is blowin' [F#m]through your hair
And the [Em]day surrounds your [F#m]daylight there
[Em]  Season's crying, [F#m]no despair
Alli[Em]gator, lizards [F#m]in the air, in the [G]air


[Dmaj7]Do do do do  do do do do
[G]Do do do do  do do do do

Important: The song above is NOT stored on the Chordie server. The original song is hosted at www.guitaretab.com. Chordie works as a search engine and provides on-the-fly formatting. Chordie does not index songs against artists/composers will. To remove this song please click here.

Dmaj Dmaj7 Em F#m G
variations - click chord images

Transpose chords

Tuning

Rating click stars to rate

Layout
Accuracy

SHARE PAGE  

You need to log in to post comments