Guitar Tabs, Chords and Lyrics


Americunt Evolving Into Useless Psychic Garbage   American Head Charge



Author/Artist: American Head Charge
Title: Americunt Evolving Into Useless Psychic Garbage
Album: The War of Art
Email: 
By: 
Tuning: Drop D down 1/2 step (Db,Ab,Db,Gb,Bb,Eb) (Low to High)


 natural harmonics
p  pull off
h  hammer on
b  bend
)  tremelo pick while sliding
/  slide up
\  slide down
X/  pick scrape
...  play until you think you should stop
Note: for the intro I have heard the bass play it live, and a guitar 
play it live with distortion.  I play the intro clean to get both 
effects.

Intro/Riff 1
GTR 1
|---------------------------------------|
|---------------------------------------|
|---------------------------------------|
|---------------------------------------|
|---------------------------------------|
|-3bp0-0-2bp0-0-3bp0-0-2bp0-0-3bp0-2bp0-|

GTR 2 
(listen to song to see where this fits)
|-------------------|
|-------------------|
|-------------------|
|-2-2-2-2-3-3-X/--1-|
|-2-2-2-2-3-3-X/--1-|
|-2-2-2-2-3-2-X/--1-|


Chorus
|-------------------------------|
|-------------------------------|
|---------------7-------------7-|
|---------------x-------------x-|
|---------------5-------------5-|
|-3bp0-0-2bp0-0---0h3bp0-2bp0---|

Verse Riff 
GTR 1
|--------------------------------------|
|--------------------------------------|
|--------------------------------------|
|--------------------------------------| X3
|--------------------------------------|
|-7bp0-0-6bp0-0-5bp0-0--7bp0-6bp0-5bp0-|

-------------------------------------|
-------------------------------------|
-------------------------------------|
----------------------0h5p0-xxxxxxxx-|
----------------------0h5p0-xxxxxxxx-|
7bp0-0-6bp0-0-5bp0-0--0h5p0-xxxxxxxx-|

GTR 2
(rest 1st time and only play this part w\ GTR 1)
|----------------|
|----------------|
|----------------|
|-0h5p0-xxxxxxxx-|
|-0h5p0-xxxxxxxx-|
|-0h5p0-xxxxxxxx-|

(Then play this part while GTR 1 is repeating the verse riff playing)
|-------------------------------|
|-------------------------------|
|-------------------------------|
|-6-5--6-5--6-5--0h5p0-xxxxxxxx-|
|-6-5--6-5--6-5--0h5p0-xxxxxxxx-|
|-6-5--6-5--6-5--0h5p0-xxxxxxxx-|

Ending riff...
|------------------|
|------------------|
|------------------|
|-2-1--2-1--2-1----|
|-2-1--2-1--2-1----|
|-2-1--2-1--2-1-...|


Important: The song above is NOT stored on the Chordie server. The original song is hosted at www.guitaretab.com. Chordie works as a search engine and provides on-the-fly formatting. Chordie does not index songs against artists'/composers' will. To remove this song please click here.

This song is displayed as text-only. Transposing and tuning is only available for chordpro-songs.

Login - add to songbook

Rating click stars to rate

Layout
Accuracy

SHARE PAGE  




You need to log in to post comments