Guitar Tabs, Chords and Lyrics


Bitter End   American Hi Fi



|----------------------------------|    repeat
|----------------------------------|
|----------------------------------|
|-7-7-7------------------12-12-12--|
|-5-5-5--7-7-9-10-10-10--10-10-10--|
|--------5-5-7-8--8--8-------------|

I HOPE YOU HAVE FUNN
christian göbel

|----------------------------------|
|----------------------------------|
|----------------------------------|
|-7-7-7------------------12-12-12--|
|-5-5-5--7-7-9-10-10-10--10-10-10--|


Important: The song above is NOT stored on the Chordie server. The original song is hosted at www.guitaretab.com. Chordie works as a search engine and provides on-the-fly formatting. Chordie does not index songs against artists'/composers' will. To remove this song please click here.

This song is displayed as text-only. Transposing and tuning is only available for chordpro-songs.

Login - add to songbook

Rating click stars to rate

Layout
Accuracy

SHARE PAGE  




You need to log in to post comments