Guitar Tabs, Chords and Lyrics


Flavour Of The Week   American Hi Fi



flavor of the week american hi fi
1/2 down TABBED BY eldoplaysguitar

intro
D#----------------------|
A#----------------------|
F#----------------------|
C#-4/66-66-66--22-2-2---|x4
G#-4/66-66-66--22-2-2---|
D#-2/44-44-44--00-0-0---|
verse
D#---------------------------------------------|
A#---------------------------------------------|
F#-4~444444-------------------99999999---------|
C#-4~444444-44444444-66666666-99999999---------|
G#-2~222222-44444444-66666666-77777777---------|
D#----------22222222-44444444------------------|
pre chours
D#---------------------------------------------|
A#-------------------------------5-4-0---------|
F#-------9-99-------666666666666-------4---9---|
C#-6-66--9-99--4-44-666666666666-------4x8-9x8-|
G#-6-66--7-77--4-44-444444444444-------2---7---|
D#-4-44--------2-22----------------------------|
chours
D#---------------------------------------------|
A#------------------------------4-2----4-2-----|
F#-4-4-----66666666-99999999-------4------4-1--|x2
C#-4-4-4-4-66666666-99999999x2--------4--------|
G#-2-2-4-4-44444444-77777777-------------------|
D#-----2-2-------------------------------------|

thats basically the whole song:)

lyrics:

She paints her nails
And she don't know
He's got her best friend on the phone
She'll wash her her
His dirty clothes are all he gives to her
And he's got posters on the wall
Of all the girls he wish she was
And he means everything to her

Her boyfriend
He don't know
Anything about her
He's too stoned
Nintendo
I wish that i could make her see
She's just the flavor of the week

It's friday night
She's all alone
He's a million miles away
And she's dressed to kill
The TV's on
He's connected to the sound
And he's got pictures on the wall
Of all the girls he's loved before
And she knows all his favortie songs

Her boyfriend
He don't know
Anything about her
He's too stoned
Nintendo
I wish that i could make her see
She's just the flavor of the week

Her boyfriend
He don't know
Anything about her
He's too stoned
He's too sonted
He's too stoned
He's too stoned

Her boyfriend
He don't know
Anything about her, needs
Too stoned
Nintendo
I wish that i could make her see
She's just the flavor of the week
Yeah she's just the flavor of the week


Important: The song above is NOT stored on the Chordie server. The original song is hosted at www.guitaretab.com. Chordie works as a search engine and provides on-the-fly formatting. Chordie does not index songs against artists'/composers' will. To remove this song please click here.

This song is displayed as text-only. Transposing and tuning is only available for chordpro-songs.

Login - add to songbook

Rating click stars to rate

Layout
Accuracy

SHARE PAGE  




You need to log in to post comments