Guitar Tabs, Chords and Lyrics


Beautiful Disaster   American Hi Fi



Artist: American Hi-Fi
Song: Beautiful Disaster
Album: the Art of Losing
Tuning: Drop D
Composer: Stacy Jones

Main Riff/Verse
|---------------------------|
|---------------------------|
|-5-55----------------------|
|-5-55-3-3-5-5-1-11-6-6-0-0-|
|-3-33-3-3-5-5-1-11-6-6-0-0-|
|------3-3-5-5-1-11-6-6-0-0-|

End Verse With This
|-----------------|
|-----------------|
|-5-5-5-5-5-5-5-5-|
|-5-5-5-5-5-5-5-5-|
|-3-3-3-3-3-3-3-3-|
|-----------------|

Pre Chorus Guitar 1
|-------------------------------|
|-------------------------------|
|-5-5-5-5-5--5------------------|
|-5-5-5-5-5--5--6-6-6-6-6-6-6-6-|
|-3-3-3-3-3--3--6-6-6-6-6-6-6-6-|
|---------------6-6-6-6-6-6-6-6-|

Pre Chorus Guitar 2
|-------------------------------|
|-9-9-9-9-9--9--9-9-9-9-9-9-9-9-|
|-7-7-7-7-7--7--7-7-7-7-7-7-7-7-|
|-------------------------------|
|-------------------------------|
|-------------------------------|

Chorus Guitar 1
|---------------------------------|
|---------------------------------|
|---------------------------------|
|-3-3-3-3-3-3-3-3-6-6-6-6-2-2-2-2-|
|-3-3-3-3-3-3-3-3-6-6-6-6-2-2-2-2-|
|-3-3-3-3-3-3-3-3-6-6-6-6-2-2-2-2-|

Chorus Guitar 2
|---------------------------------|
|---------------------------------|
|-5-5-5-5-5-5-5-5-8-8-8-8-4-4-4-4-|
|-5-5-5-5-5-5-5-5-8-8-8-8-4-4-4-4-|
|-3-3-3-3-3-3-3-3-6-6-6-6-2-2-2-2-|
|---------------------------------|

"What a beautiful disaster"          End With
|---------------------------------|--------------|
|---------------------------------|--------------|
|-5-55----------------------------|--------------|
|-5-55----------------------------|-1-11-6-6-0-0-|
|-3-33----------------------------|-1-11-6-6-0-0-|
|---------------------------------|-1-11-6-6-0-0-|

3rd Verse                      End With
|---------------------------|----------------------------|
|---------------------------|----------------------------|
|-5-55----------------------|-5-55-----------------------|
|-5-55-3-3-5-5-1-11-6-6-0-0-|-5-55-3-3-5-5-1-11-3~~~-----|
|-3-33-3-3-5-5-1-11-6-6-0-0-|-3-33-3-3-5-5-1-11-3~~~-----|


Important: The song above is NOT stored on the Chordie server. The original song is hosted at www.guitaretab.com. Chordie works as a search engine and provides on-the-fly formatting. Chordie does not index songs against artists'/composers' will. To remove this song please click here.

This song is displayed as text-only. Transposing and tuning is only available for chordpro-songs.

Login - add to songbook

Rating click stars to rate

Layout
Accuracy

SHARE PAGE  




You need to log in to post comments