Guitar Tabs, Chords and Lyrics


Am Pm   American Nightmare



-------------------------------------------------------------------------------
			   AM PM - American Nighmare
-------------------------------------------------------------------------------

By: Mike Crucial www.myspace.com/mikecrucial

   Intro/Chorus
E|---------------------------------------------------------------------------|
B|----------------------------------------------------------------------(x2)-|
G|------5--9-9-9-9-9-9-9--5-5-5-5--------5--9-9-9-9-9-9-9--5-5-5--6-6-6------|
D|--3-5-5-----------------5-5-5-5--x-3-5-5-----------------------------------|
A|--3-5-3--7-7-7-7-7-7-7--3-3-3-3--x-3-5-3--7-7-7-7-7-7-7--3-3-3--4-4-4------|
E|--1-3----------------------------x-1-3-------------------------------------|

		        Verse
E|-----------|--------|------------------------------------------------------|
B|-----------|--(x2)--|------------------------------------------------(x2)--|
G|--------5--|--------|-----12-12-12-12-12-12-12-12--------5-----------------|
D|--x-3-5-5--|--------|--2---------------------------x-3-5-5-----------------|
A|--x-3-5-3--|--------|--2--10-10-10-10-10-10-10-10--x-3-5-3-----------------|
E|--x-1-3----|--------|--0---------------------------x-1-3-------------------|

E|---------------------------------------------------------------------------|
B|---------------------------------------------------------------------------|
G|-----12-12-12-12-12-----12-12-12--------5------12-12-----12-12-------------|
D|--2------------------2------------x-3-5-5---2---------2---------2-2-2-2----|
A|--2--10-10-10-10-10--2--10-10-10--x-3-5-3---2--10-10--2--10-10--2-2-2-2----|
E|--0------------------0------------x-1-3-----0---------0---------0-0-0-0----|

   Repeat Chorus/Verse/Chorus

   Break
         _________________________________  _________________________________
        | 1.				   | 2.
E|-----|----------------------------------|----------------------------------|
B|-----|----------------------------(x4)--|----------------------------------|
G|-----|-------------------------5--------|--4-4-4-4-4-4-4-4-4------5---4-4--|
D|--2--|--2-2-2-2-2-2-2-2-2--3-5-5--------|---------------------3-5-5--------|
A|--2--|--2-2-2-2-2-2-2-2-2--3-5-3--------|--2-2-2-2-2-2-2-2-2--3-5-3---2-2--|
E|--0--|--0-0-0-0-0-0-0-0-0--1-3----------|---------------------1-3----------|
   ______________________________
  | 2.
E|-------------------------------|        |----------------------------------||
B|-------------------------------|        |------12--------------------------||
G|--4-4-4-4-4-4--9-9-9-9------5--| Repeat |----------------------------------||
D|------------------------3-5-5--| Break  |--2-------------------------------||
A|--2-2-2-2-2-2--7-7-7-7--3-5-3--|        |--2-------------------------------||
E|------------------------1-3----|        |--0-------------------------------||



Important: The song above is NOT stored on the Chordie server. The original song is hosted at www.guitaretab.com. Chordie works as a search engine and provides on-the-fly formatting. Chordie does not index songs against artists/composers will. To remove this song please click here.

This song is displayed as text-only. Transposing and tuning is only available for chordpro-songs.

Login - add to songbook

Rating click stars to rate

Layout
Accuracy

SHARE PAGE  




You need to log in to post comments