Guitar Tabs, Chords and Lyrics


Victorious March   Amon Amarth



Artist: Amon Amarth
Song  : Victorious March


Tab By: Idimmu
tuning: B,E,A,D,F#,b

. = palm mute

this sounds prety good to me
but if you have any corrections
please comment or send me a message
at shadow666ddemn@yahoo.com


b :-----------------------------------------------------------------|
F#:-----------------------------------------------------------------|
D :-----------------------------------------------------------------|
A :---3---3---3---3---6---6---5---5---8---8---8---8---6---6---5---5-|
E :-----------------------------------------------------------------|
B :-0---0---0---0---0---0---0---0---0---0---0---0---0---0---0---0---|
    .   .   .   .   .   .   .   .   .   .   .   .   .   .   .   .


b :---------------------------------|
F#:---------Repeat-2X---------------|
D :---------------------------------|
A :---3---3---3---3---5---5---6---6-|
E :-4---4---4---4---4---4---4---4---|
B :---------------------------------|
    .   .   .   .   .   .   .   .

b :-----------------------------------------------------------------|
F#:-----------------------------------------------------------------|
D :-----------------------------------------------------------------|
A :---3---3---3---3---6---6---5---5---8---8---8---8---6---6---5---5-|
E :-----------------------------------------------------------------|
B :-0---0---0---0---0---0---0---0---0---0---0---0---0---0---0---0---|
    .   .   .   .   .   .   .   .   .   .   .   .   .   .   .   .

b :---------------------------------|
F#:---------------------------------|
D :---------------------------------|
A :---3---3---3---3---5---5---6---6-|
E :-4---4---4---4---4---4---4---4---|
B :---------------------------------|
    .   .   .   .   .   .   .   .


b :---------------------------------|
F#:---------------------------------|
D :---------------------------------|
A :---3---3---3---3---5---5---6-----|
E :-4---4---4---4---4---4-----------|
B :---------------------------------|
    .   .   .   .   .   .

b :-----------------------------------------------------------------|
F#:-----------------------------------------------------------------|
D :-----------------------------------------------------------------|
A :-3-3-3-3-3-3-3-3-6-6-6-6-5-5-5-5-8-8-8-8-8-8-8-8-6-6-6-6-8-8-8-6-|
E :-----------------------------------------------------------------|
B :-----------------------------------------------------------------|

b :------------------------------------------|
F#:---------Repeat-2X------------------------|
D :------------------------------------------|
A :-3-3-3-3-3-3-3-3-5-5-5-5-6-6-6-6----------|
E :------------------------------------------|
B :------------------------------------------|


b :-----------------------------------------------------------------|
F#:-----------------------------------------------------------------|
D :-----------------------------------------------------------------|
A :-3-3-3-3-3-3-3-3-6-6-6-6-5-5-5-5-8-8-8-8-8-8-8-8-6-6-6-6-8-8-8-6-|
E :-----------------------------------------------------------------|
B :-----------------------------------------------------------------|


b :------------------------------------------|
F#:---------Repeat-2X------------------------|
D :------------------------------------------|
A :-3-3-3-3-3-3-3-3-5-5-5-5-6-6-6-6----------|
E :------------------------------------------|
B :------------------------------------------|


b :-------------------------------------------------------------------------|
F#:---------Repeat-4X-------------------------------------------------------|
D :-------------------------------------------------------------------------|
A :-----------------------------------10-----8-----10-----------------------|
E :-10---11----10----10----11----10---------------------10-----11----(10)---|
B :---000---000---000---000---000---0----000---000----0----000---(000)------|
      ...   ...   ...   ...   ...   .    ...   ...    .    ...    ...

b :------|
F#:------|
D :------|
A :-2----|
E :-2----|
B :-0----|


b :-------|
F#:-------|
D :-------|
A :-8-8---|
E :-6-6---|
B :-------|



Important: The song above is NOT stored on the Chordie server. The original song is hosted at www.guitaretab.com. Chordie works as a search engine and provides on-the-fly formatting. Chordie does not index songs against artists'/composers' will. To remove this song please click here.

This song is displayed as text-only. Transposing and tuning is only available for chordpro-songs.

Login - add to songbook

Rating click stars to rate

Layout
Accuracy

SHARE PAGE  




You need to log in to post comments