Whats Been Going On

Amos Lee

-------------------------------------------------------------------------------

-------------------------------------------------------------------------------

 Fmaj7C
e|---------------------------------------------------------------------------|
B|--1----1----1-----1--------------------------------------------------------|
G|--0h2--2----0-----0--------------------------------------------------------|
D|--3----3----0h2---2--------------------------------------------------------|
A|------------3-----3--------------------------------------------------------|
E|---------------------------------------------------------------------------|


Verse:
 Fmaj7C
 And no one says a word to me
 Fmaj7C
 They're concerned with my jealousy
 Fmaj7C
 Well I guess that's how it's gotta be
 G
From now on

 Fmaj7C
 And time, it swallows everything
 Fmaj7C
 From the mighty to the meager thing
 Fmaj7C
 And it's as dark as it is comforting
 G
To play along

 F
Well What's Been Going On?
 C
What's Been Going On?
 F
What's been going on?
 G
Around here

There goes her old beat up car
Outside of our old favorite bar
She's proudly in there playing her guitar
With stars in her eyes

Those are some of my favorite memories
( What's Been Going On lyrics brought to you by LyricsYouLove )
All of those carefree melodies
While I'm out of here on this raging sea
About to capsize

Well what's been going on?
What's been going on?
What's been going on?
Around here

What's been going on?
What's been going on?
What's been going on?
Around here

And no one says a word to me
They're concerned with my jealousy
I guess that's how it's gotta be
From now on

| h hammer-on

That's my version of the song. Hope it helps! Any suggestions? please mail me at:
Cheers! Timpe

==============================================================================


C F Fmaj7 G
variations - click chord images
Transpose chords:
Tuning:
Cool service:
View: Size:
A  A  A
Rating:
Layout:
  • Currently 2.9/5 Stars.
  • 1
  • 2
  • 3
  • 4
  • 5
 
Accuracy:
  • Currently 3/5 Stars.
  • 1
  • 2
  • 3
  • 4
  • 5
 
click stars to rate
Chordie recommends:
Learn to play guitar with video-based, online guitar lessons at JamPlay.com
Songbook:
Login to add this song to your songbook
Support the artist
Preview/buy this song
MSN Music
Why this non-profit ad?

 
login to add comments/video/corrections