Guitar Tabs, Chords and Lyrics


Belly And The Beast  Anais Mitchell

-------------------------------------------------------------------------------



-------------------------------------------------------------------------------

e|-----------|-------|----------|----------|
B|-----------|-------|----------|----------|
G|-----------|-------|----------|----------|
D|-----------|-------|----------|----------|
A|-10-----10-|---8---|--5—5h6p5-|-----3----|
E|-8---8-----|--10---|--6-------|-6---3----|
e|-----------|-------|-----------------|
B|-----------|-------|-----------------|
G|-----------|-------|-----------------|
D|-----------|-------|-----------------|
A|-10-----10-|---8---|---------6-------|
E|-8---8-----|--10---|--6-6/8--8--8--8-|
I i[Cm]n my long[Bb]ing fly out[D#] in the nig[G#]ht
[Cm]unveiled and i[Bb]rreverently dre[G#]ssed
I’m [Cm]lip-stuck and [Bb]liquored up- p[D#]icking a f[G#]ight
I’m the w[Cm]icked wicked w[D#]itch of the w[G#]est
[Cm]over the al[Bb]leyways, ba[D#]ckward and b[G#]lind
and the [Cm]sad and ins[Bb]atiable spra[G#]wl
[Cm]over the ma[Bb]rketplace, d[D#]arkly defin[G#]ed
[Cm]his desert is[D#] sounding a c[G#]all
[Bb]     [G#]                                
[Cm]he was a b[Bb]usinessman t[D#]wenty-five [G#]years
when the [Cm]angel appea[Bb]red with his [G#]orders
I am [Cm]making you [Bb]mine, my di[D#]vine volun[G#]teer
and I’m[Cm] flying you [D#]over the bord[G#]er
and h[Cm]e can’t re[Bb]call where it [D#]all fell ap[G#]art
was it [Cm]north of me[Bb]dina or so[G#]uth?
where the [Cm]prophecy e[Bb]nds and the p[D#]olitics st[G#]art
where the [Cm]weapon went [D#]into his m[G#]outh
Bridge

[Cm]and everyone’s s[C#]leeping, and he’s f[Cm]lying o[C]ut    [Fm]
and no one can [C#]keep him d[Cm]own n[C]ow     [Fm]

(Instrumental, Same Chords Verse)
the m[Cm]orning del[Bb]ivers the n[D#]ews to my d[G#]oor
of my pr[Cm]esident’s [Bb]war in the e[G#]ast
but [Cm]he doesn’t t[Bb]ell me and [D#]I don’t know [G#]who’s
in the [Cm]belly and w[D#]ho is the be[G#]ast
when there’s[Cm] no place to r[Bb]un to, when there’s[D#] no place to hi[G#]de
it won’t m[Cm]atter whose s[Bb]ide you are [G#]on
like the [Cm]bomb in the bas[Bb]ement we couldn’t [D#]stop if we tr[G#]ied
and it [Cm]won’t be long, and it [D#]won’t be long, and it [G#]won’t be long...


| / slide up
| \ slide down
| h hammer-on
| p pull-off
| ~ vibrato
| + harmonic
| x Mute note
===============================================================================

Important: The song above is NOT stored on the Chordie server. The original song is hosted at www.guitaretab.com. Chordie works as a search engine and provides on-the-fly formatting. Chordie does not index songs against artists'/composers' will. To remove this song please click here.

Text color:
Chord color:
Chord grids: 
Font size:    
Page size: 

Bb C C# Cm D# Fm G#
variations - click chord images

Login - add to songbook

Transpose chords

Tuning

Rating click stars to rate

Layout
Accuracy

SHARE PAGE  




You need to log in to post comments