Chordie logo

A Day Late Acoustic   Anberlin



-------------------------------------------------------------------------------
			     A Day Late - Anberlin
-------------------------------------------------------------------------------
Tabbed by: Mr_Boyco

so this is my first tab, saw another version of this tab go up and didn't like it much, 
decided to write my own...any comments/complaints email at swimmin_freak@hotmail.com

Intro
      So let me get this straight.....
E|---x---|---0---|---0---|---0---|
B|---x---|---0---|---0---|---0---|
G|---x---|---4---|---6---|---2---|          x2
D|---x---|---4---|---6---|---2---|
A|---x---|---2---|---4---|---0---|
E|---x---|---0---|---0---|---0---|

     I can see it in your eyes...
E|--------0-------0--------0-----0------------------|
B|---------------------------------0----------------|
G|----4-------6---------2-----------2---------------|          x2
D|------4-------6--------2--------------------------|
A|---2--------4--------0----------------------------|
E|--------------------------------------------------|

Verse
    Now we both have seperate lives....
E|---0---|---0---|---0---|
B|---0---|---0---|---0---|
G|---4---|---6---|---2---|          x2
D|---4---|---6---|---2---|
A|---2---|---4---|---0---|
E|---0---|---0---|---0---|

    Only Time Will Tell....
E|---0---|---0---|
B|---0---|---0---|
G|---4---|---2---|          x2
D|---4---|---2---|
A|---2---|---0---|
E|---0---|---0---|

E|---0---|
B|---0---|
G|---4---|
D|---4---|
A|---2---|
E|---0---|

Chorus
    We are who we were when...
E|---0---|---0---|---0---|
B|---0---|---0---|---0---|
G|---9---|---4---|---2---|
D|---9---|---4---|---2---|
A|---7---|---2---|---0---|
E|---0---|---0---|---0---|

    We are who...                                                   x2
E|---0---|---0---|
B|---0---|---0---|
G|---6---|---4---|          x2
D|---6---|---4---|
A|---4---|---2---|
E|---0---|---0---|

Verse
    But thoughts, they change...
E|---0---|---0---|---0---|
B|---0---|---0---|---0---|
G|---6---|---4---|---2---|          x2
D|---6---|---4---|---2---|
A|---4---|---2---|---0---|
E|---0---|---0---|---0---|
                                                                        x2
E|-------------------|
B|---4h5p4--2--0-----|
G|-------------------|
D|-------------------|
A|-------------------|

E|-------------------|


The rest is basically the same thing repeated...i'm not too big on the chord names, but 
it was still understandable.

| /  slide up
| \  slide down
| h  hammer-on
| p  pull-off
| ~  vibrato
| +  harmonic
| x  Mute note


Important: The song above is NOT stored on the Chordie server. The original song is hosted at www.guitaretab.com. Chordie works as a search engine and provides on-the-fly formatting. Chordie does not index songs against artists/composers will. To remove this song please click here.

This song is displayed as text-only. Transposing and tuning is only available for chordpro-songs.

Login - add to songbook

Rating click stars to rate

Layout
Accuracy

SHARE PAGE  



You need to log in to post comments