Guitar Tabs, Chords and Lyrics


Dismantle Repair   Anberlin



OK, like the third tab I’ve ever done? and I’m not that great at it so I’m ready for the 
on this one, I’m sure some of its wrong. and I haven’t figured out the pre chorus yet, 
its similar to the intro. GREAT SONG, so enjoy it!


INRO:
		    One last glance from....
eb |----------------------------------------------------------|
Bb |----------------------------------------------------------|
Gb |----------------------------------------------------------|
Db |--------2-2-2---------2-2-2---------6-6-6---------6-6-6---|
Ab |-----2-------------2-------------6-------------6----------|
Eb |--0-------------0-------------4-------------4-------------|

CHORUS:

      Hands, like secrets, are...      Lines and phrases, like knives...
eb |--------------------------------------------------------|
Bb |--------------------------------------------------------|
Gb |--6--------------------------------8--------------------|
Db |--7--------------------------------9--------------------|
Ab |--7--------------------------------9--------------------|
Eb |--5--------------------------------7--------------------|


      Dismantle me down (repair)...    You dismantle me...
eb |--4--------------------------------0--------------------|
Bb |--5--------------------------------0--------------------|
Gb |--6--------------------------------1--------------------|
Db |--6--------------------------------2--------------------|
Ab |--4--------------------------------2--------------------|
Eb |--4--------------------------------0--------------------|

BRIDGE:
                     Save me from myself
eb |--5--------------7--------------4-----------------------|
Bb |--5--------------7--------------5-----------------------|
Gb |--6--------------8--------------6-----------------------|
Db |--7--------------9--------------6-----------------------|
Ab |--7--------------9--------------4-----------------------|


Important: The song above is NOT stored on the Chordie server. The original song is hosted at www.guitaretab.com. Chordie works as a search engine and provides on-the-fly formatting. Chordie does not index songs against artists'/composers' will. To remove this song please click here.

This song is displayed as text-only. Transposing and tuning is only available for chordpro-songs.

Login - add to songbook

Rating click stars to rate

Layout
Accuracy

SHARE PAGE  




You need to log in to post comments