Guitar Tabs, Chords and Lyrics


Love Song Acoustic   Anberlin



OK this isn't really an Anberlin song but its a cool acoustic version of the song by the cure.

INTRO:

Guitar 1:

e|--------------------------------------|
B|--------------------------------------|
G|---5-7-9-7-7/9\7-5----5-7-9-7-7/9\7-5-| x however many
D|-7------------------7-----------------|
A|--------------------------------------|
D|--------------------------------------|

Guitar 2: Come in after 1x of Guitar 1.
                                    
e|-00000000000000000000000000000000-----|
B|-11111111111111111111111111111111-----|
G|-22222222222222222222222222222222-----| x however many
D|-22222222222222222222222222222222-----|
A|-00000000000000000000000000000000-----|
D|-xxxxxxxxxxxxxxxxxxxxxxxxxxxxxxxx-----|

VERSE 1:

Guitar 1: Nothing

Guitar 2:   PLAY IT FAST   
e|---7--------7-------7--------7------7----------|
B|-----5--------5-------5--------5------5--------|
G|-------5--------5-------5--------5------5------| x however many
D|-7---------------------------------------------|
A|-----------------------------------------------|
D|-----------------------------------------------|

Then 

Guitar 1:

e|--------------------|
B|---------1-0-----0--|
G|--------------2-----|
D|-----2-2-------2----|
A|--------------------|
D|--------------------|

INTERLUDE:

Guitar 1:

e|--------------------------------------|
B|--------------------------------------|
G|---5-7-9-7-7/9\7-5----5-7-9-7-7/9\7-5-| x however many
D|-7------------------7-----------------|
A|--------------------------------------|
D|--------------------------------------|

Guitar 2:
               
e|-00000000000000000000000000000000-----|
B|-11111111111111111111111111111111-----|
G|-22222222222222222222222222222222-----| x however many
D|-22222222222222222222222222222222-----|
A|-00000000000000000000000000000000-----|
D|-xxxxxxxxxxxxxxxxxxxxxxxxxxxxxxxx-----|

VERSE 2:

Guitar 1: Nothing

Guitar 2:   PLAY IT FAST
e|---7--------7---------7----------7------------|
B|-----5--------5---------5----------5----------|
G|-------5--------5----------5----------5-------| x however many
D|-7---------7---------7----------7-------------|
A|----------------------------------------------|
D|----------------------------------------------|

Then 

Guitar 1:

e|--------------------|
B|---------1-0-----0--|
G|--------------2-----|
D|-----2-2-------2----|
A|--------------------|
D|--------------------|

CHORUS:

Guitars 1 + 2:                                       "I will always..."
e|--------------------------------------------------|----------|
B|--------------------------------------------------|----------|
G|-5-5-5-5--7-7-7-7--9-9-9-9--5-5-5-5--7-7-7-7------|-5-5-5-5--| 
D|-3-3-3-3--5-5-5-5--7-7-7-7--5-5-5-5--7-7-7-7------|-3-3-3-3--|   x3
A|-3-3-3-3--5-5-5-5--7-7-7-7--3-3-3-3--5-5-5-5------|-3-3-3-3--|
D|-3-3-3-3--5-5-5-5--7-7-7-7------------------------|-3-3-3-3--|
                                                      ^PLAY THIS ON 
                                                         LAST TIME
Guitar 1: END ON 

e|----0~-----|
B|----1~-----|
G|----2~-----|
D|----2~-----|
A|----0~-----|
D|----x~-----| 


INTERLUDE:

Guitar 1:

e|--------------------------------------|
B|--------------------------------------|
G|---5-7-9-7-7/9\7-5----5-7-9-7-7/9\7-5-| x however many
D|-7------------------7-----------------|
A|--------------------------------------|
D|--------------------------------------|

Guitar 2:
               
e|-00000000000000000000000000000000-----|
B|-11111111111111111111111111111111-----|
G|-22222222222222222222222222222222-----| x however many
D|-22222222222222222222222222222222-----|
A|-00000000000000000000000000000000-----|
D|-xxxxxxxxxxxxxxxxxxxxxxxxxxxxxxxx-----|

SOLO:

Guitar 1:
e|-7-77-7-----7-7-----7-77-7-----7-8-8/10-10------5------------------------|
B|--------8-------8----------8-----------------8-8-------------------------|
G|----------7-------7----------7--------------------7b8b7-5-7-7b8b7--------|
D|------------------------------------------------------------------7-5-7~-|
A|-------------------------------------------------------------------------|
D|-------------------------------------------------------------------------|

Guitar 2:
e|-00000000000000000000000000000000-----|
B|-11111111111111111111111111111111-----|
G|-22222222222222222222222222222222-----| x however many
D|-22222222222222222222222222222222-----|
A|-00000000000000000000000000000000-----|
D|-xxxxxxxxxxxxxxxxxxxxxxxxxxxxxxxx-----|

VERSE 3:

Guitar 1: Nothing

Guitar 2:   PLAY IT FAST
e|---7--------7---------7----------7------------|
B|-----5--------5---------5----------5----------|
G|-------5--------5----------5----------5-------| x however many
D|-7---------7---------7----------7-------------|
A|----------------------------------------------|
D|----------------------------------------------|

Then 

Guitar 1:

e|--------------------|
B|---------1-0-----0--|
G|--------------2-----|
D|-----2-2-------2----|
A|--------------------|
D|--------------------|

CHORUS:

Guitars 1 + 2:                                       "I will always..."
e|--------------------------------------------------|----------|
B|--------------------------------------------------|----------|
G|-5-5-5-5--7-7-7-7--9-9-9-9--5-5-5-5--7-7-7-7------|-5-5-5-5--| 
D|-3-3-3-3--5-5-5-5--7-7-7-7--5-5-5-5--7-7-7-7------|-3-3-3-3--|   x3
A|-3-3-3-3--5-5-5-5--7-7-7-7--3-3-3-3--5-5-5-5------|-3-3-3-3--|
D|-3-3-3-3--5-5-5-5--7-7-7-7------------------------|-3-3-3-3--|
                                                      ^PLAY THIS ON 
                                                         LAST TIME
Guitars 1 + 2: END ON 

e|----0~-----|
B|----1~-----|
G|----2~-----|
D|----2~-----|
A|----0~-----|
D|----x~-----|

Alright so there it is......... Hope you like it.

Feedback.....steve_1101@hotmail.com

and remember.............ANBERLINISGOD!


Important: The song above is NOT stored on the Chordie server. The original song is hosted at www.guitaretab.com. Chordie works as a search engine and provides on-the-fly formatting. Chordie does not index songs against artists'/composers' will. To remove this song please click here.

This song is displayed as text-only. Transposing and tuning is only available for chordpro-songs.

Login - add to songbook

Rating click stars to rate

Layout
Accuracy

SHARE PAGE  




You need to log in to post comments