Guitar Tabs, Chords and Lyrics


Rest Will Follow  and You Will Know Us By The Trail Of Dead

-------------------------------------------------------------------------------



-------------------------------------------------------------------------------

e|---------------| e|------------------|
B|-7-7-7-8-7-5---| B|-77777777-8-7-5---|
G|---------------| G|------------------|
D|---------------| D|------------------|
A|---------------| A|------------------|
E|---------------| E|------------------|
e|---------------|
B|-23--23--23----|
G|---------------|
D|---------------|
A|---------------|
E|---------------|
e|-10---7--------2---5------5-------------|
B|-10---7--------2---5------5-------------|
G|-11---7--------2---4------4-------------|
D|-12---9--------4---7------5-------------|
A|-12---9--------4---7------5-------------|
E|-10---7--------2---5------3-------------|
   [D]    [Bmin]       [F#min]        [A]      [G]         
[D]How can a[Bmin]nyone be [F#min]so      [A]unkind
[D]As to [Bmin]want to take [F#min]another's piece of [A]mind?
[D]Is a[Bmin]cceptance so [F#min]implausib[A]le?
[G]Well I know [A]how the best will fall
[G]And the rest will [A]follow.
Intro Again

[D]It's [Bmin]important to [F#min]recogniz[A]e
[D]In this [Bmin]world we live there is [F#min]nothing worth [A]dying
[D]It's [Bmin]enough to say "[F#min]hello", we're all [A]human
[G]But I know [A]how the best will fall
[G]And the res[A]t will follow

[G]Is[Bmin] it s[A]o eas[G]y [Bmin]to re[A]sign
[G]To[Bmin] ruin[A] this[G] w[Bmin]orld [A]for everyone?
[G]I [Bmin]guess[A] when[G] i[Bmin]t's a[A]ll said and done
[G]It's just something in our [A]design.
[D]We are[Bmin] all of us so [F#min]capable [A]of
[D]The greatest acts of [Bmin]hate and the [F#min]worst acts of [A]love
I wonder sometimes what's the matter with us all
[G]And I know how the [A]best will fall
[G]And the rest will [A]follow...


| / slide up
| \ slide down
| h hammer-on
| p pull-off
| ~ vibrato
| + harmonic
| x Mute note
===============================================================================

Important: The song above is NOT stored on the Chordie server. The original song is hosted at www.guitaretab.com. Chordie works as a search engine and provides on-the-fly formatting. Chordie does not index songs against artists'/composers' will. To remove this song please click here.

Text color:
Chord color:
Chord grids: 
Font size:    
Page size: 

A Bmin D F#min G
variations - click chord images

Login - add to songbook

Transpose chords

Tuning

Rating click stars to rate

Layout
Accuracy

SHARE PAGE  




You need to log in to post comments