Guitar Tabs, Chords and Lyrics


Caterwaul  and You Will Know Us By The Trail Of Dead

-------------------------------------------------------------------------------



-------------------------------------------------------------------------------

e|-------------------------------------|
B|-------------------------------------|
G|-------------------------------------|
D|--10--10-----------10--10------------|
A|--10--10-----------10--10------------|
E|--8---8---10---8---8---8---10---8----|
e|-------------------------------------|
B|--1---1---3----1---1---1---3----1----|
G|-------------------------------------|
D|-------------------------------------|
A|-------------------------------------|
E|-------------------------------------|
[Am]Because it's not in my nature
Riff 1 x4 Am
Golden wings rise from the plane
[Am]They burn above the red earth
Riff 1 x4 Am
Scale these walls in front of me
[Am]Have you ever stopped to wonder
G Bb C Riff 1
Why they forced your voice to turn
Riff 1
From silence to a caterwaul?

e|-------------------------------------|
B|-13---------13\10--------------------|
G|-------------------------------------|
D|-------------------------------------|
A|-------------------------------------|
E|-------------------------------------|


Riff 1 x4 Am
Never knew I could feel this way
[Am]So old and and unremembered
Riff x4 Am
Never thought it would slip away
[Am]And fall like September
Riff 1 x4 Am
Scale these walls in front of me
[Am]Have you ever stopped to wonder
G Bb C Riff 1
Why they forced my voice
Riff 1
To turn from silence to a caterwaul?

Heard your caterwaul...

Piano arranged for guitar, listen for rhythm
e|--1--3--1--0--1----------------------|
B|-----------------1-------------------|
G|-------------------------------------|
D|-------------------------------------|
A|-------------------------------------|
E|-------------------------------------|


[C]And what has tried to bound [Am]me
[C]I've severed every [Am]tie
[C]Place your arms around [Am]me
[C]And we'll leave the rest [Am]behind

Riff 1
What was I to say?
Riff 1
How was I to know?
[Am]Was it your soft voice that said so?

Riff 1 continue until the end


| / slide up
| \ slide down
| h hammer-on
| p pull-off
| ~ vibrato
| + harmonic
| x Mute note
===============================================================================

Important: The song above is NOT stored on the Chordie server. The original song is hosted at www.guitaretab.com. Chordie works as a search engine and provides on-the-fly formatting. Chordie does not index songs against artists'/composers' will. To remove this song please click here.

Text color:
Chord color:
Chord grids: 
Font size:    
Page size: 

Am C
variations - click chord images

Login - add to songbook

Transpose chords

Tuning

Rating click stars to rate

Layout
Accuracy

SHARE PAGE  




You need to log in to post comments