""; ?> A Classic Arts Showcase by and You Will Know Us By The Trail Of Dead - guitar chords, guitar tabs and lyrics - chordie
-------------------------------------------------------------------------------

-------------------------------------------------------------------------------
e|---------------------------------------------------------------------|
B|---------------------------------------------------------------------|
G|---5------4------7------5------4------7------------------------------|
D|---7------5------7------7------5------7------------------------------|
A|---7------5------5------7------5------5------------------------------|
E|---5------3-------------5------3-------------------------------------|

 AmGD5AmGD5
 AmC
 White glow of the TV set
 AmC
 Lights dancing on the screen
 AmC
 Voice-overs rise like minarets
 AmC
 Then fall diatonically.
 AmC
 Should I answer a friend's distress call
 AmC
 Or should I go to sleep?
 AmC
 Would I, like the voices rise and fall,
 Am
 What's it to me?

 C
 All those hours of wasted time
 C
 Have never passed my mind.

Riff 2 2nd Guitar
e|--------------------------------------------------------------------|
B|--------------------------------------------------------------------|
G|----------7------------7--------------------------------------------|
D|--7---5--------7---5------------------------------------------------|
A|--------------------------------------------------------------------|
E|--------------------------------------------------------------------|


Riff 1&2
Here I am comfortable
Riff 1&2
In arm's reach of the black remote.
Riff 1&2
Here I am comfortable
Riff 1&2
Surrounded by stings and bows.
Riff 1&2
Let everyone else go.

 AmC
 Nights on Kirkwood so serene
 AmC
 Far from the sirens and the screams
 Am
 I could write or I could read
 C
 Go next door and smoke some weed
 AmC
 As long as I don't have to think
 AmC
 About who the hell's running this mess
 AmC
 Or what shit they're writing up the Stone or NME
 Am
 Go out and make last call
 C
 Or sit here and do nothing at all
 Am
 What's it to me?

 C
 All those hours of wasted time
 C
 Have never passed my mind.

Riff 1&2
Here I am comfortable
Riff 1&2
In arm's reach of the black remote.
Riff 1&2
Here I am comfortable
Riff 1&2
All those clowns, what can they know?
Riff 1&2
Let everyone else go.

Instrumental chords (palm muted)

 Am-G-C-F
then chorus again.

| / slide up
| \ slide down
| h hammer-on
| p pull-off
| ~ vibrato
| + harmonic
| x Mute note
===============================================================================


Am C D5 G
variations - click chord images
Transpose chords:
Tuning:
Cool service:
View: Size:
A  A  A
Rating:
Layout:
  • Currently 2.4/5 Stars.
  • 1
  • 2
  • 3
  • 4
  • 5
 
Accuracy:
  • Currently 2.3/5 Stars.
  • 1
  • 2
  • 3
  • 4
  • 5
 
click stars to rate
Chordie recommends:
Learn how to play guitar at JamPlay.com
Songbook:
Login to add this song to your songbook
Support the artist
Preview/buy this song
MSN Music
Why this non-profit ad?

 
login to add comments/video/corrections