"yes"; ?> Tentang Seseorang by Anda - guitar chords, guitar tabs and lyrics - chordie

Tentang Seseorang

Anda

 F#mD
 Teruntukmu hatiku
 EA
 Inginku bersuara
 F#mD
 Merangkai semua tanya
 EA
 Imaji yang terlintas

 BmC#m
   Berjalan pada satu
 C#F#m
   Tanya selalu menggangguku
 Bm
   Seseorang
 EA
   Itukah dirimu kasih (fill)

 F#mD
 Kepada yang tercinta
 EA
 Inginnya kumengeluh
 F#mD
 Semua resah di diri
 EA
 Mencari jawab pasti

 BmC#m
   Akankah seseorang
 C#F#m
   Yang kurindukan hadir
 Bm
   Raut halus
 EA
   Menyelimuti jantungku

reff:

 BmE
 Cinta hanyalah cinta
 AF#m
 Hidup dan mati untukmu
 BmC#
 Mungkinkah semua tanya
 F#m
Kau yang jawab
 BmE
Dan tentang seseorang
 AF#m
 itu pula dirimu
 BmCF#mGmF#mGmF#m
 Kubersumpah akan mencinta                

-solo- (2 times)

 F#mDEA
|--------12-------------------------------------------------
|--9/10---------10--9--10-----------------------------------
|--------------------------11-----11--9---------9-----------
|----------------------------------------9-9h11-----11------
|-----------------------------------------------------------
|-----------------------------------------------------------


 BmC#m
   Akankah seseorang
 C#F#m
   Yang kuimpikan hadir
 Bm
   Raut halus
 EA
   Menyelimuti jantungku

Back: reff

int: F#m Bm F#m Bm C#

Back: reff (2 times)

Coda: Gm F#m Gm F#m Gm

fill
 A
|---5--------------|
|-------6----------|
|-----------7------|
|------------------|
|------------------|
|------------------|


thanx to nadaon7
Good luck guyz!

- end of tab


A Bm C C# C#m D E F#m Gm
variations - click chord images
Transpose chords:
Tuning:
Cool service:
View: Size:
A  A  A
Rating:
Layout:
  • Currently 2.6/5 Stars.
  • 1
  • 2
  • 3
  • 4
  • 5
 
Accuracy:
  • Currently 3.4/5 Stars.
  • 1
  • 2
  • 3
  • 4
  • 5
 
click stars to rate
Chordie recommends:
Learn to play this song & others via video guitar lessons at JamPlay.com
Songbook:
Login to add this song to your songbook
Support the artist
Preview/buy this song
MSN Music
Why this non-profit ad?

 
login to add comments/video/corrections