Guitar Tabs, Chords and Lyrics


Nada Fue Un Error  Andres Calamaro

[-----]                                     
   [A]           [E]         [D]                   [E] 
E|-----------------------------------------------------------------|
B|----------3-2------------2-3-5-----------3-2---------------------|
G|--2-----------4-2-4-------------2-2----------4-2-4---------------|
D|-------------------------------------------------------2/4---2---|
A|-----------------------------------------------------------------|
E|-----------------------------------------------------------------|


Tengo un[A]a mala noticia
no fue d[E]e casualidad
yo quería[D] que nos pasara...y tu, y tu
lo deja[E]ste pasar

No quiero [A]que me perdones
y no me[E] pidas perdón
no me niegu[D]es que me buscaste
nada nada de[E] esto
Nada de est[A]o fue un error   uo[E]ooohh
nada fue [D]un error
n[E]ada de esto [A]fue un error   uo[E]ooohh
nada fue[D] un error... (y t[E]e digo)
Los error[A]es no se eligen
para bien[E] o para mal
no fallé cu[D]ando viniste...y tu, y tu
no quisi[E]ste fallar
Aprendí l[A]a diferencia
entre jue[E]go y el azar
quien te mir[D]a y quien se entrega
nada nad[E]a de esto
Nada de est[A]o fue un error   uo[E]ooohh
nada fue [D]un error
n[E]ada de esto [A]fue un error   uo[E]ooohh
nada fue[D] un error...
Solo:
[----]                                     
    [G]                                      [A] 
E|------7------5------3------2------------------------------------|
B|--7/8----8/7----7/5----5/3-----3/2--2/3----3/5-3-2-0---0^2^3/5--|
G|-----------------------------------------------------2----------|
D|----------------------------------------------------------------|
A|----------------------------------------------------------------|
E|----------------------------------------------------------------|


    [G] 
E|------7------5------3------2-------------|
B|--7/8----8/7----7/5----5/3-----3/2--2/3--|
G|-----------------------------------------|
D|-----------------------------------------|
A|-----------------------------------------|
E|-----------------------------------------|


    [E] 
E|----------------------------------------------------------|
B|--3/5-5-5---5/7-7-7---7/9-9-9---9/10-10-10---10/12-12-12--|
G|----------------------------------------------------------|
D|----------------------------------------------------------|
A|----------------------------------------------------------|
E|----------------------------------------------------------|


Aquí repite lo mismo pero se unen las dos voces, y la cantan
un poco mas alta...

Y al final...
Nada d[E]e esto fue...

    [G] 
E|------7------5------3------2-------------------|
B|--7/8----8/7----7/5----5/3-----3/2--2/3---3/5--|
G|-----------------------------------------------|
D|-----------------------------------------------|
A|-----------------------------------------------|
E|-----------------------------------------------|				


Important: The song above is NOT stored on the Chordie server. The original song is hosted at www.guitaretab.com. Chordie works as a search engine and provides on-the-fly formatting. Chordie does not index songs against artists'/composers' will. To remove this song please click here.

Text color:
Chord color:
Chord grids: 
Font size:    
Page size: 

A D E G
variations - click chord images

Login - add to songbook

Transpose chords

Tuning

Rating click stars to rate

Layout
Accuracy

SHARE PAGE  




You need to log in to post comments