Guitar Tabs, Chords and Lyrics


Adventure Acoustic  Angels and Airwaves

-------------------------------------------------------------------------------



-------------------------------------------------------------------------------

  [Em7]    [Cadd9]       [G]    [D/F#]                                                                                     
e|-3----3----3----2-|
B|-3----3----3----3-|
G|-0----0----0----2-|
D|-2----2----0----0-|
A|-2----3----2----0-|
E|-0----0----3----2-| (play D/F# 200233 if it’s easier for you)

Intro:

e|------------------------------------------------------------------|
B|-----3-------3-------3-------3-------3-------3--------3-------3---|
G|---0---0---0---0---0---0---0---0---0---0---0---0----0---0---0---0-|
D|-5-------5-------4-------4-------2-------2--------4-------4-------|
A|------------------------------------------------------------------| Riff 1
E|------------------------------------------------------------------| x5

(D/F#, G, Em7, D/F#)

e|-----------------------------------------------------------------|
B|-3-3-3-1-1-1-0-0-1-1-1-0-0-0-----1-1-1-0-0-0---------------------|
G|-----------------------------0-0-------------0-0-----------------|
D|-------------------------------------------------0-0-0-----------|
A|-------------------------------------------------------3-3-3-2-2-| Riff 2
E|-----------------------------------------------------------------| x2

Em7, Cadd9, G, D/F# x2

e|-----------------------------------------------------------------|
B|-3-----3-----3-5-1-----1-----0---3-----3-----3-5-1-----1-----0---|
G|---0-0---0-0-------0-0---0-0---0---0-0---0-0-------0-0---0-0---0-|
D|-----------------------------------------------------------------|
A|-----------------------------------------------------------------| Riff 3
E|-----------------------------------------------------------------|

Em7, Cadd9, G, D/F#

(Riff 2)
Em7, Cadd9, G, D/F#


Verse 1:

I wanna have the [Em7]same last dream a[Cadd9]gain
The one where I wake [G]up and I'm a[D/F#]live
Just as the four [Em7]walls close me with[Cadd9]in
My eyes are opened [G]up with pure sun[D/F#]light
I'm the first to kn[Em7]ow
My dearest fr[Cadd9]iends
Even if your [G]hope has burned with [D/F#]time
Anything that's [Em7]dead shall be re-[Cadd9]grown
And your vicious [G]pain, your warning [D/F#]sign
You will be [G]fine

Chorus:

(Riff 1 x2 - start picking at “fine” and every chord change represents a change in the picking
IE: G = the 5, D/F# = 4, and Em7 = the 2)

Hey, [D/F#]oh, here I [Em7]am  [D/F#]
And here we [G]go, life's [D/F#]waiting to be[Em7]gin [D/F#]

(Riff 2 x2)
Em7, Cadd9, G, D/F# x2


Verse 2:

Any type of [Em7]love - it will be [Cadd9]shown
Like every single [G]tree reach for the [D/F#]sky
If you're gonna [Em7]fall
I'll let you [Cadd9]know
That I will pick you [G]up
Like you for [D/F#]I
I felt this th[Em7]ing
I can't repl[Cadd9]ace
Where everyone was [G]working for this [D/F#]goal
Where all the children [Em7]left without a [Cadd9]trace
Only to come [G]back, as pure as [D/F#]gold
To recite this [G]all

Chorus:

(Riff 1 x6 - start picking at “all”)

Hey, [D/F#]oh, here I [Em7]am  [D/F#]
And here we [G]go, life's [D/F#]waiting to be[Em7]gin [D/F#]
Ton[G]ight
Hey, [D/F#]oh, here I [Em7]am  [D/F#]
And here we [G]go, life's [D/F#]waiting to be[Em7]gin [D/F#]
Ton[G]ight
Hey, [D/F#]oh, here I [Em7]am  [D/F#]
And here we [G]go, life's [D/F#]waiting to be[Em7]gin [D/F#]

Bridge:

[G]I cannot [Cadd9]live, I can't [G]breathe
Unless you [D/F#]do this with me
[G]I cannot [Cadd9]live, I can't [G]breathe
Unless you [D/F#]do this with me
[G]I cannot [Cadd9]live, I can't [G]breathe
Unless you [D/F#]do this with me
[G]I cannot [Cadd9]live, I can't [G]breathe
Unless you [D/F#]do this with me
[G]I cannot [Cadd9]live, I can't [G]breathe
Unless you [D/F#]do this with me
[G]I cannot [Cadd9]live, I can't [G]breathe
Unless you [D/F#]do this with me

Chorus:

(riff 1x4)

Hey, [G]oh[D/F#], here [Em7]I am ([D/F#]do this with me)
And here we [G]go, life's [D/F#]waiting to be[Em7]gin [D/F#](do this with me)
Hey, [G]oh[D/F#], here [Em7]I am ([D/F#]do this with me)
And here we [G]go, life's [D/F#]waiting to be[Em7]gin
Life's [D/F#]waiting to be[G]gin.

The outro is something like this, repeating and fading out, but you could just end on G.

e|-----------------|
B|-----3-------1-0-|
G|---0---0---0-----|
D|-5-------4-------|
A|-----------------|
E|-----------------|				


Important: The song above is NOT stored on the Chordie server. The original song is hosted at www.guitaretab.com. Chordie works as a search engine and provides on-the-fly formatting. Chordie does not index songs against artists'/composers' will. To remove this song please click here.

Text color:
Chord color:
Chord grids: 
Font size:    
Page size: 

Cadd9 D/F# Em7 G
variations - click chord images

Login - add to songbook

Transpose chords

Tuning

Rating click stars to rate

Layout
Accuracy

SHARE PAGE  




You need to log in to post comments