Guitar Tabs, Chords and Lyrics


Face The Day  Angels

x x[D5/A] 7 7 x x          x x[C5/G] 5 5 x x          x x[A5/E] 2 2 x x          x x[F#b5] 4 5 x x

x x [F5]3 5 x x          x 0 [A5]2 2 x x          x x [D5]0 2 3 x

Moderate Rock Q=124


Main Riff

         [D5/A]      [C5/G]            [A5/E]         [D5/AC5/G] [A5/E]         ~
E E E E H +Q E E +H E E E E H +Q E E
|----------||----------------|-----------------|---------------|
|----------||o---------------|-----------------|---------------|
|--------7-||--5----(5)----2-|-(2)-----------7-|-5----(5)----2-|
|----5---7-||--5----(5)----2-|-(2)-------5---7-|-5----(5)----2-|
|-/7---0---||o---------------|--------/7---0---|---------------|
|----------||----------------|-----------------|---------------|



  +H      E E E [D5/AC5/G]E   H.      E [F#b5]E   +H.      E [F5]E
|-----------------|-------------|--------------|
|-----------------|-------------|--------------|
|-(2)-----------7-|-5---------5-|-(5)--------5-|
|-(2)-------5---7-|-5---------4-|-(4)--------3-|
|--------/7---0---|-------------|--------------|
|-----------------|-------------|--------------|



  +H.      E [A5/E]E   +H      E E E [D5/A]E
|--------------|------------------||
|--------------|-----------------o||
|-(5)--------2-|-(2)-----------7--||
|-(3)--------2-|-(2)-------5---7--||
|--------------|--------/7---0---o||
|--------------|------------------||



1st Verse
  [C5/G]H    +Q   E [A5/E]E   +H      E E E [D5/AC5/G]E
|---------------|-----------------|
|---------------|-----------------|
|-5----(5)----2-|-(2)-----------7-|
|-5----(5)----2-|-(2)-------5---7-|
|---------------|--------/7---0---|
|---------------|-----------------|



  H    +Q   E [A5/E]E   +H      E E E [D5/AC5/G]E   H.      E [F#b5]E
|---------------|-----------------|-------------|
|---------------|-----------------|-------------|
|-5----(5)----2-|-(2)-----------7-|-5---------5-|
|-5----(5)----2-|-(2)-------5---7-|-5---------4-|
|---------------|--------/7---0---|-------------|
|---------------|-----------------|-------------|



  +H.      E [F5]E   +H.      E [A5]E   +W           +H      E E E [D5/A]E
|--------------|--------------|------------|-----------------||
|--------------|--------------|------------|-----------------||
|-(5)--------5-|-(5)--------2-|-(2)--------|-(2)-----------7-||
|-(4)--------3-|-(3)--------2-|-(2)--------|-(2)-------5---7-||
|--------------|------------0-|-(0)--------|-(0)----/7---0---||
|--------------|--------------|------------|-----------------||



Loud Verses
    [C5/G]     PM    PM[A5/E]                   [D5/AC5/G]         PM    PM[A5/E]                   [D5/A]
Q E E E E E E +Q Q E E E E Q E E E E E E +Q Q E E E E 4x
||-----------------|------------------|----------------|--------------------||
||o----------------|------------------|----------------|-------------------o||
||--5--5---5-5---2-|-(2)--2---------7-|-5--5---5-5---2-|-(2)--2---------7---||
||--5--5---5-5---2-|-(2)--2-----5---7-|-5--5---5-5---2-|-(2)--2-----5---7---||
||o------0-----0---|---------/7---0---|------0-----0---|---------/7---0----o||
||-----------------|------------------|----------------|--------------------||



Bridge
  [D5]Q  Q  Q  E E   +E  E Q  E E Q    Q  Q  Q  E E   +E  E Q  E E Q
|--------------|-----------------|--------------|-----------------|
|-3--3--3--3-3-|-(3)-3-3--3------|-3--3--3--3-3-|-(3)-3-3--3------|
|-2--2--2--2-2-|-(2)-2-2--2------|-2--2--2--2-2-|-(2)-2-2--2------|
|-0--0--0--0-0-|-(0)-0-0--0------|-0--0--0--0-0-|-(0)-0-0--0------|
|--------------|------------0-3--|--------------|------------0-3--|
|--------------|-----------------|--------------|-----------------|



  [D5]Q  Q  Q  E E   +E  E Q  E E Q    Q  Q  E E E E   Q  H.
|--------------|-----------------|---------------|----------||
|-3--3--3--3-3-|-(3)-3-3--3------|-3--3--3-------|----------||
|-2--2--2--2-2-|-(2)-2-2--2------|-2--2--2-------|----------||
|-0--0--0--0-0-|-(0)-0-0--0------|-0--0--0-------|----------||
|--------------|------------0-3--|---------0-3-0-|-2--------||
|--------------|-----------------|---------------|----0-----||



Important: The song above is NOT stored on the Chordie server. The original song is hosted at www.guitaretab.com. Chordie works as a search engine and provides on-the-fly formatting. Chordie does not index songs against artists'/composers' will. To remove this song please click here.

Text color:
Chord color:
Chord grids: 
Font size:    
Page size: 

A5 A5/E C5/G D5 D5/A F5
variations - click chord images

Login - add to songbook

Transpose chords

Tuning

Rating click stars to rate

Layout
Accuracy

SHARE PAGE  




You need to log in to post comments