"yes"; ?> All Of Me by Angus and Julia Stone - guitar chords, guitar tabs and lyrics - chordie
 INTRO
Guitar One plays picking pattern five times, Guitar two plays over
guitar one the second time through.

Guitar One
e|---0-----0---------0-----0-----0---0-----0-----0---0-------0-----|
B|-----3-----3---------3-----3---------3-----3---------3-------3---|
G|-4-----4-----4-0-2-----2-----2---0-----0-----0---0-----0-2-----2-|
D|-----------------------------------------------------------------|
A|-----------------------------------------------------------------|
E|-----------------------------------------------------------------|


Guitar Two
e|------------------------------------------------------|
B|----------14---------14-12-------------10--10---10-10-|
G|--11-11-11---11-11-11-----11-11--11\------9-----------|
D|------------------------------------------------------|
A|------------------------------------------------------|
E|------------------------------------------------------|
e|---------------------------------------------------------------|
B|------14-14---------12----12---------10----10--------8-------7-|
G|-11-11---------11-11----11------11-11----11------9-9---\-7-7---|
D|---------------------------------------------------------------|
A|---------------------------------------------------------------|
E|---------------------------------------------------------------|
e|----------------------------------------------------------------|
B|-------14----14---------12----12---------12----12-------8-----7-|
G|--11-11----11------11-11---11------11-11----11------9-9---\-7---|
D|----------------------------------------------------------------|
A|----------------------------------------------------------------|
E|----------------------------------------------------------------|
e|------------------------------------------------------------------|
B|------14----14---------12----12---------10----10-------8--------7-|
G|-11-11----11------11-11----11------11-11----11-----9-9---9\-7-7---|
D|------------------------------------------------------------------|
A|------------------------------------------------------------------|
E|------------------------------------------------------------------|


 VERSE/CBORUS/OUTRO
Play this through the rest of the song
 BmE7sus4G6G6E7sus4
e|-----2-------0-------0-------0---0-----|
B|----3-------3-------3-------3---3------|
G|---4-------4-------4-------4---4-------|
D|---------------------------------------|
A|--2-------0----------------------------|
E|------------------3-------3---0--------|


 VERSE
Is there a cure for this pain
Maybe I, I should have something to eat
Food wont take this emptiness away
Im hungry for you my love

 VERSE
  (Other guitar plays picking pattern over chords)
Well I made it through another day
In my cold room
On scraps and pieces left behind
I survive on the memory of you

 CBORUS
All Of me is all for you
You're all I see
All of me is all for you
You're all I need

 VERSE
 (Other guitar plays picking pattern over chords)
Is there a remedy for waiting
For loves victorious return
Is there a remedy for hating
Every second that Im without you

 Repeat CBORUS

 VERSE
All this life is all for love
Its the only road I'll choose
And every street and avenue
Only one will lead me to you

 Repeat CBORUS

 OUTRO
One Love, One Love, One Love
One Love, One Love, One Love
One Love

Bm E7sus4 G6
variations - click chord images
Transpose chords:
Tuning:
Cool service:
View: Size:
A  A  A
Rating:
Layout:
  • Currently 0/5 Stars.
  • 1
  • 2
  • 3
  • 4
  • 5
 
Accuracy:
  • Currently 4/5 Stars.
  • 1
  • 2
  • 3
  • 4
  • 5
 
click stars to rate
Chordie recommends:
Get acoustic guitar lessons and electric guitar lessons at JamPlay.com
Songbook:
Login to add this song to your songbook
Support the artist
Preview/buy this song
MSN Music
Why this non-profit ad?

 
login to add comments/video/corrections