G
e|----0-------0-----|---0-------0------|
B|----3-------3-----|---3-------3------|
G|-------0-------0--|------0-------0---|
D|------------------|------------------|
A|------------------|------------------|
E|--3-----3-3-----3-|-3-----3-3-----3--|

 12341234
      ]    ]    ]    ]      ]    ]    ]    ]

 Em7
e|----0-------0-----|---0-------0------|
B|----3-------3-----|---3-------3------|
G|-------0-------0--|------0-------0---|
D|------------------|------------------|
A|------------------|------------------|
E|--0-----0-0-----0-|-0-----0-0-----0--|

 12341234
      ]    ]    ]    ]      ]    ]    ]    ]
 G
 I wish I had a mango tree
 Em7
 In my backyard
 G
 With you standing next to me
 Em7
 Take the picture
 G
 From her lips I heard her say
 Em7
 Can I have you
 G
 Caught up on what to say
 Em7
I said you do 

(CHORUS)
I said you do
I said you do
e|----0-------0-----|---0-------0-----|---0-------0-----|---0-------0------|
B|----3-------3-----|---3-------3-----|---3-------3-----|---3-------3------|
G|-------0-------0--|------0-------0--|------0-------0--|------0-------0---|
D|------------------|-----------------|---------0-----0-|------------------|
A|--3-----3-2-----2-|-----------------|-3-----3---------|------------------|
E|------------------|-3-----3-3-----3-|-----------------|-3-----3-3-----3--|

 1234123412341234
      ]    ]    ]    ]      ]    ]    ]    ] ]
 G
 Through my eyes I can see
 Em7
 A shooting star
 G
 Weaving its way across the sea
 Em7
 Somewhere from Mars
 G
 Cause down the street we will run
 Em7
 Scatch our names in the park
 G
 Young and free, in the sun
 Em7
 Wheels upon the tar

(CHORUS)
I said you do
I said you do
I said you do
I said you do
I said you do

(SOLO)

e|--7-----5-----3----------|-3p0----------------------------|
B|-------------------------|-----3p0------------------------|
G|-------------------------|---------2p0---------0----------|
D|-------------------------|-------------2p0-0h2------------|
A|-------------------------|--------------------------------|
E|-------------------------|--------------------------------|

 12341234
       ]      ]      ]      ]        ]   ]

e|--7h8------------0--2/3-5-|-5/7-----5-------3h5p3p0-------|
B|--------------------------|-------------------------------|
G|--------------------------|-------------------------------|
D|--------------------------|-------------------------------|
A|--------------------------|-------------------------------|
E|--------------------------|-------------------------------| 

 12341234
       ]      ]      ]      ]         ]  ]

e|--7-----5-----3----------|-3p0---------------------------|
B|-------------------------|-----3p0-----------------------|
G|-------------------------|---------2p0---------0---------|
D|-------------------------|-------------2p0-0h2-----------|
A|-------------------------|-------------------------------|
E|-------------------------|-------------------------------|

 12341234
       ]      ]      ]      ]        ]   ]

e|--7h8------------0--2/3-5-|-5/7-----5-------3h5p3p0-----2-|
B|--------------------------|-------------------------------|
G|--------------------------|-------------------------------|
D|--------------------------|-------------------------------|
A|--------------------------|-------------------------------|
E|--------------------------|-------------------------------| 

 12341234
       ]      ]      ]      ]         ]  ]

e|--2h3------------------2-|-2h3------------------2-|-2h3--------------------|-------|
B|-----------0--0h1--------|-----------1--1h3-------|-------------0-----0----|-------|
G|-------------------------|------------------------|----------4-------------|-0-----|
D|-------------------------|------------------------|------------------------|-------|
A|-------------------------|------------------------|------------------------|-------|
E|-------------------------|------------------------|------------------------|-------|

 1234123412341
       ]      ]      ]      ]        ]   ]
 G
 I wish I had a mango tree
 Em7
 In my backyard
 G
 With you standing next to me
 Em7
 Take the picture
 G
 From her lips I heard her say
 Em7
 Can I have you
 G
 Caught up on what to say
 Em7
I said you do 

(CHORUS)
I said you do
I said you do
I said you do
I said you do


Em7 G
variations - click chord images
Transpose chords:
Tuning:
Cool service:
View: Size:
A  A  A
Rating:
Layout:
  • Currently 3/5 Stars.
  • 1
  • 2
  • 3
  • 4
  • 5
 
Accuracy:
  • Currently 2.6/5 Stars.
  • 1
  • 2
  • 3
  • 4
  • 5
 
click stars to rate
Chordie recommends:
Learn to play this song & others via video guitar lessons at JamPlay.com
Songbook:
Login to add this song to your songbook
Support the artist
Preview/buy this song
MSN Music
Why this non-profit ad?

 
login to add comments/video/corrections