""; ?> Weve Gotta Get Out Of This Place by Animals - guitar chords, guitar tabs and lyrics - chordie

Weve Gotta Get Out Of This Place

Animals

e------|

B------|
 G-2/3-5
 D-2/3-5  (Add your licks here) Repeat As Neccesary
A------|
E------|


Chorus- Clean Guitar (Sorry timing is wrong but these are the chords)

 FBbCFGCFBbCD
e------------------------------|
B------------------------------|
G----3--5--------5-----3--5--7-|
D-3--3--5--3--5--5--3--3--5--7-|
A-3--1--3--3--5--3--3--1--3--5-|
E-1--------1--3-----1----------|


Post Chorus- Clean Guitar (Again Sorry for timing)

e-------------------|
B-------------------|
G-------------------|
D-3-1-------3-1-----|
A------1-3------1-3-|
E-------------------|


Ending is the same as Post Chorus

Thats The Whole Song

Structure

Intro/Verse
Chorus
Post Chorus
Verse
Chorus
Post Chorus
Chorus
Post Chorus
Ending/Post Chorus

Thats It Finished Im pretty sure its 100%.








Bb C D F G
variations - click chord images
Transpose chords:
Tuning:
Cool service:
View: Size:
A  A  A
Rating:
Layout:
  • Currently 3.3/5 Stars.
  • 1
  • 2
  • 3
  • 4
  • 5
 
Accuracy:
  • Currently 3.5/5 Stars.
  • 1
  • 2
  • 3
  • 4
  • 5
 
click stars to rate
Chordie recommends:
Learn to play guitar with video-based, online guitar lessons at JamPlay.com
Songbook:
Login to add this song to your songbook
Support the artist
Preview/buy this song
MSN Music
Why this non-profit ad?

 
login to add comments/video/corrections