We Gotta Get Out Of This Place



                                         N.C. (C7)
E |-------------------------||
B |-------------------------||
G |-------------3--2--------||
D |-------5-----------5--3--||
A |--3-------3--------------||
E |-------------------------||

(Verse :)
In this dirty old part of the city
Where the sun refused to shine
People tell me there ain't no use in tryin'
       Now my girl you're so young and pretty 
And one thing I know is true  
You'll be dead before your time is due, I know (it)
          Watch my daddy in bed and tired   
Watch his hair thin and turning grey, yeah  
He's been working and slaving his life away  
Oh yes I know    
(/ I know he's been working so hard)
Yeah, he's been working so hard 
(/yeah,I've been working too babe)
Yeah, ma been working too, baby
(/yeah, every day, babe)
Yeah, every night and day
Yeah, yeah, yeah  
We gotta get out of this place
If it's the last thing we ever do
We gotta get out of this place
'Cos girl there's a better life for me and you
| F Eb | Bb C | F Eb | Bb C ||
E |------------------8------6-------8-----------------5----------|
B |------------------8------6-------8-----------------6----------|
G |------------------9------7-------9----10----12-----7-----8----|
D |--8----9-----8---10------8------10----10----12-----7-----8----|
A |--8----9----10------------------10-----8----10-----5-----6----|
E |--6----7----10-------------------8----------------------------|

Keep rockin !
Max ( Max_Guitarplayer@hotmail.com )

B Bb C Dm Eb F G
variations - click chord images
Transpose chords:
Cool service:
View: Size:
A  A  A
  • Currently 1.9/5 Stars.
  • 1
  • 2
  • 3
  • 4
  • 5
  • Currently 2.5/5 Stars.
  • 1
  • 2
  • 3
  • 4
  • 5
click stars to rate
Login to add this song to your songbook
IMPORTANT: The song above is NOT stored on the Chordie server. The original song is hosted at www.guitaretab.com. Chordie works as a search engine and provides on-the-fly formating. Chordie does not index songs against artists/composers will. To remove this song please click here.

login to add comments/video/corrections