Guitar Tabs, Chords and Lyrics


Anoche Yo Sone Con Ella  Anthony Santos

11-12-10-11-12-10-11.



Intro:
1-10--9-----------------9--9--------------------||
2--------12--10---------------12--10------------||
3----------------9---------------------11-------||
4-------------------11--------------------12----||
5-----------------------------------------------||
6-----------------------------------------------|| x2
e----------------------9-------------------9-9h10-----------||
b--------------11--12-----------------12----------10-12-10--||
g---12--11--12------------12--11--12------------------------||
d-----------------------------------------------------------||
a-----------------------------------------------------------||
e-----------------------------------------------------------||
e---9--10--12~-------------------10--12--14------------------||
b-------------------10-12-10---------------------------------||
g------------------------------------------------------------||
d------------------------------------------------------------||
a------------------------------------------------------------||
e------------------------------------------------------------||


x2
1||:-14-12-10-9-----9-14-------9-14-9--------:||------------||
2||:-----------------------------------12~---:||-7--8—7~----||
3||:-----------------------------------------:||------------||
4||:-----------------------------------------:||------------||
5||:-----------------------------------------:||------------||
6||:-----------------------------------------:||------------||     Bm II


[Bm]Anoche yo soñe con [D]ella[F#]. Algo que espero de hace tiemp[Bm]o.
Soñaba que vivia con el[D]la.[F#] Que solo se escuchaba el vie[Bm]nto.
Que la besaba con locur[D]a [F#]y todo lo haciamos en silen[Bm]cio.
[D]despu[A]es en mis brazos se[D] dormia.
Y[Bm] … l[D]lore po[A]rque sentia mucha alegr[D]ia.

[F#]Pero fue solo un lindo su[Bm]eño.
[F#]Porque vivo pensando en e[Bm]lla.
[F#]Pero ella nunca tiene tie[Bm]mpo.
D[F#]e estar conmigo ni un mo[Bm]mento.
[F#]Pero ella nunca tiene tie[Bm]mpo.
[Bm]Anoche yo soñe con e[D]lla.[F#]  Soñaba que llegaba el d[Bm]ia.
[Bm]Que la mañana estaba[D] fri[F#]a y levantarte no que[Bm]ria.
[Bm]Estoy malita tu deci[D]as y[F#] yo el vestido te pon[Bm]ia.
[Bm]Con…a[D]mor hace[A]mos todo en har[Bm]monia.
Y[Bm] …gr[D]ite por[A]que sabia que te [Bm]tenia
[F#]Pero fue solo un lindo su[Bm]eño.
[F#]Porque vivo pensando en e[Bm]lla.
[F#]Pero ella nunca tiene tie[Bm]mpo.
D[F#]e estar conmigo ni un mo[Bm]mento.
[F#]Pero ella nunca tiene tie[Bm]mpo
Intro with solo

[Bm]Quisiera que esta pesad[D]illa[F#], caramba se termin[Bm]e ya
[Bm]Que todo aquello que he soña[D]do, [F#]quiero que se haga real[Bm]idad
[Bm]Estemos juntos para siem[D]pre[F#], donde no hallan mas tor[Bm]mentos

[Bm]Y...[D] vivir enam[A]orado todo el d[D]ia
[Bm]Que.[D].. ese am[A]or que sea para toda la v[D]ida
[F#]Pero ella nunca tiene tie[Bm]mpo
D[F#]e estar conmigo ni un mome[Bm]nto
P[F#]ero ella nunca tiene tie[Bm]mpo
D[F#]e estar conmigo ni un mom[Bm]ento
[F#]Pero ella nunca tiene tie[Bm]mpo
D[F#]e estar conmigo ni un mome[Bm]nto

Important: The song above is NOT stored on the Chordie server. The original song is hosted at www.guitaretab.com. Chordie works as a search engine and provides on-the-fly formatting. Chordie does not index songs against artists'/composers' will. To remove this song please click here.

Text color:
Chord color:
Chord grids: 
Font size:    
Page size: 

A B Bm D E F# G
variations - click chord images

Login - add to songbook

Transpose chords

Tuning

Rating click stars to rate

Layout
Accuracy

SHARE PAGE  




You need to log in to post comments