Guitar Tabs, Chords and Lyrics


Anthem For The New Millennium Generation   Anti



ok i hope this isnt too confusing. it shouldnt be. but yea it should be pretty good. i 
tab the solo but i will later. there area couple parts that are palm muted but i didnt 
them but youll figure that out by listening to the song.
__=let it ring
>=pickslide
INTRO
e---------------------|
B---------------------|
G-----6__-------------|
D-8__-6__-4__---------|x2
A-8__-4__-4__---------|
E-6__-----2__---------|

e----------------------------|
B----------------------------|
G----------------------------|
D-8__-8__-8__-888888888888---|
A-8__-8__-8__-888888888888---|
E-6__-6__-6__-666666666666---|

VERSE
e-----------------------------|
B-----------------------------|
G-----------------------------|
D-88888888-1111111111111111---|
A-88888888-1111111111111111---|
E-66666666-9-9-9-9-9-9-9-9----|

PRE-CHORUS
e----------------------------|
B----------------------------|
G------6666------------------|
D-4444-6666-88-66-44---------|
A-4444-4444-88-66-44---------|x2
E-2222------66-44-22---------|

e--------------------------------------|
B--------------------------------------|
G--------------------------------------|not sure if its strummed as many
D-444444666666666666-6-6-6-6-6---------|>>>>>>>times as i wrote it to be but
A-444444666666666666-6-6-6-6-6---------|>>>>>>>you get the idea
E-222222444444444444-4-4-4-4-4---------|>>>>>>>

CHORUS
e--------------------------|
B--------------------------|
G------6666----------------|
D-8888-6666-44444444-------|
A-8888-4444-44444444-------|
E-6666------22222222-------|

e-------------------------------------|
B-------------------------------------|
G------6666-11111111-13-13-13-13------|
D-8888-6666-11111111-13-13-13-13------|
A-8888-4444-9-9-9-9--11-11-11-11------|
E-6666--------------------------------|

e--------------------------------------------------------|
B--------------------------------------------------------|
G------6666----------------------------------------------|
D-8888-6666-4444-6666-8888-6666-44444444-6666-6-6-6-6-6--|
A-8888-4444-4444-6666-8888-6666-44444444-6666-6-6-6-6-6--|
E-6666------2222-4444-6666-4444-22222222-4444-4-4-4-4-4--|

INTROx2
e---------------|
B---------------|
G---------------|play this 2nd time (instead
D-444444666666--|of holding last chord)
A-444444666666--|
E-222222444444--|

VERSEx2
PRE-CHORUSx2(no pickslide this time)
CHORUSx1

Ill tab the solo part later...

e-------------------------------|
B-------------------------------|
G-------44-6-8------------------|
D-44-33-44-6-8-8-8-8-8----------|
A-44-33-22-4-6-8-8-8-8----------|x3 3rd time stop after
E-22-11--------6-6-6-6----------|the 2nd chord

ENDING CHORUS
e--------------------------|
B--------------------------|
G------6666----------------|
D-8888-6666-44444444-------|
A-8888-4444-44444444-------|
E-6666------22222222-------|

e-------------------------------------|
B-------------------------------------|
G------6666-11111111-13-13-13-13------|
D-8888-6666-11111111-13-13-13-13------|
A-8888-4444-9-9-9-9--11-11-11-11------|
E-6666--------------------------------|

e--------------------------|
B--------------------------|
G------6666----------------|
D-8888-6666-4444-8888------|
A-8888-4444-4444-8888------|
E-6666------2222-6666------|

e-------------------------------------------------|
B-------------------------------------------------|
G-----------------------                      -4--|
D-8888-6666-44444444----                      -4--|
A-8888-6666-44444444----x3 3rd time only play -2--|


Important: The song above is NOT stored on the Chordie server. The original song is hosted at www.guitaretab.com. Chordie works as a search engine and provides on-the-fly formatting. Chordie does not index songs against artists'/composers' will. To remove this song please click here.

This song is displayed as text-only. Transposing and tuning is only available for chordpro-songs.

Login - add to songbook

Rating click stars to rate

Layout
Accuracy

SHARE PAGE  




You need to log in to post comments