Chordie logo


I Can T Leave   Apollo



Intro -
 1st guitar
 h= hammer
 v=vibrato
 e -/-0-7-8h7-0-7-8h7-0-7-8h7-0-5-7h5-0-3-5h3-0-1-3
 B-/- - - - - - - - - - - - - - - - - - - - - - - - - - - - - - - - - -
 G-/- - - - - - - - - - - - - - - - - - - - - - - - - - - - - - - - - -
 D-/- - - - - - - - - - - - - - - - - - - - - - - - - - - - - - - - - -
 A-/- - - - - - - - - - - - - - - - - - - - - - - - - - - - - - - - - -
 E-/- - - - - - - - - - - - - - - - - - - - - - - - - - - - - - - - - -
 2nd plays same as first, only on low E

 Verse
 Chords:
 Em     Gmodal     A     C
 0            3    0      0
 0            3    2      1
 0            0    2      0
 2            0    2      2
 2            2    0      3
 0            3    x      x
    Em                        Gmodal                A
/ /--------------------------------------------------------------------------------0----------------------\- \
/ /------------------0--------------------------3----------------2-------------------2------------------\--- \
/ /--------0------------0-------0-----------------0----------------2-------------------2---------------\---- \
/ /----------2-----------2----------0----------------0-----------------2--------------------------------\--- \
/ /-------------2-----------------------2--------------------0---------------0---------------------------\-- \
/ /-0------------0-----------3-------------3-------------------------------------------------------------\-- \
repeat. 2nd guitar strums chords.
i was board so I tabbed out the bass for the verse.
Bass:
/-  -  -  -  -  -  -  -  -  -  -  -  -  -  -  -  -  -  -  -  -  -  -  -  -  -  -  -  -  -  -  -  -  -  - \
/-  -  -  -  -  -  -  -  -  -  -  -  -  -  -  -  -  -  -  -  -  -  -  -  -  -  -  -  -  -  -  -  -  -  - \
/-0 0 0 0--7 7 7 7--3 3 3 3--1 1 1 1--5 5 5 5--9 9 9 9--7-7-7-7--12-12-12-12- \
/-  -  -  -  -  -  -  -  -  -  -  -  -  -  -  -  -  -  -  -  -  -  -  -  -  -  -  -  -  -  -  -  -  -  - \

Chorus:
1st  C                         Em                      A
/--------------------------------------------------------------------------------------\- \
/--------1-------------1------------0------------0-----------2------------2--------\----- \
/-----------0-------------0------------0------------0------------2-----------2-----\----- \
/---------------2------------2------------2------------2-------------2----------2--\----- \
/----3---------------3-------------2-----------2------------0-------------0--------\----- \
/---------------------------------------------------------------------------------------\ \


Important: The song above is NOT stored on the Chordie server. The original song is hosted at www.guitaretab.com. Chordie works as a search engine and provides on-the-fly formatting. Chordie does not index songs against artists/composers will. To remove this song please click here.

This song is displayed as text-only. Transposing and tuning is only available for chordpro-songs.

Login - add to songbook

Rating click stars to rate

Layout
Accuracy

SHARE PAGE  




You need to log in to post comments