Guitar Tabs, Chords and Lyrics


Bring Me Down   Apulanta



-------------------------------------------------------------------------------
			     BRING ME DOWN - APULANTA
-------------------------------------------------------------------------------
HERE IS THIS GREAT SONG, I HEARD IT FIRST ON TRANSWORLD SNOWBOARDING, 
AND SINCE THEN IVE BEEN HOOKED!  I ALSO HAVE THIS SAME INTRO ALREADY POSTED...BUT I
WANTED 2 FINISH OUT THE SONG NEWAY!  UG PLEASE ACCEPT THIS TAB I KNOW THE INTRO IS
THE SAME BUT I WANTED 2 FINISH OUT THE SONG!

Tabbed by: ORIOLESAZB
Email:-------------

Tuning: STANDARD
HEAVEY DISTORTION

e|-9--9--9--9----|
B|-13-13-13-13---|\
G|---------------| \
D|---------------| / REPEAT THIS PART ALOT
A|---------------|/
E|---------------|
 
THEN THIS PART COMES IN 

INTRO
GUITAR 1

e|-------------------------------------|
B|-14----14-14----14-14----14-13-14-13-|
G|----13-------13-------13-------------|
D|-------------------------------------|
A|-------------------------------------|
E|-------------------------------------|

e|-----------------------------------------|
B|-14----14-14----14-14----14-11\9-11-11\9-|
G|----13-------13-------13-----------------|
D|-----------------------------------------|
A|-----------------------------------------|
E|-----------------------------------------|

e|-------------------------------------|
B|-14----14-14----14-14----14-13-14-13-|
G|----13-------13-------13-------------|
D|-------------------------------------|
A|-------------------------------------|
E|-------------------------------------|

e|-14---14-14----14-14----13^-|
B|----13------13-------13-----|
G|----------------------------| 
D|----------------------------|
A|----------------------------|
E|----------------------------|

BASIC VERSE/CHORUS RIFF:  HEVEY DISTORTION

e|----------------------------------|
B|----------------------------------|
G|-----6-6-------------6-6----------|
D|-8-8-6-6-6-6-4-4-8-8-6-6-6-6-3/4-4|
A|-8-8-4-4-6-6-4-4-8-8-4-4-6-6-3/4-4|
E|-6-6-----4-4-2-2-6-6-----4-4-1/2-2|

RIGHT BEFORE 2ND CHORUS PLAY THIS

e|-9--9--9--9----|
B|-13-13-13-13---|
G|---------------|
D|---------------| 
A|---------------|
E|---------------|

DURING BRIDGE PLAY THIS A LOT (ON D STRING)

D|-4-|

END SONG ON

e|---|
B|---|
G|---|
D|-4-|
A|-4-|
E|-2-|

IM PRETTY SURE THIS TAB IS 100% IF NOT SEND ME A COMENT! 

| ^  bend
| /  slide up
| \  slide down
| h  hammer-on
| p  pull-off
| ~  vibrato
| +  harmonic
| x  Mute note


Important: The song above is NOT stored on the Chordie server. The original song is hosted at www.guitaretab.com. Chordie works as a search engine and provides on-the-fly formatting. Chordie does not index songs against artists/composers will. To remove this song please click here.

This song is displayed as text-only. Transposing and tuning is only available for chordpro-songs.

Login - add to songbook

Rating click stars to rate

Layout
Accuracy

SHARE PAGE  




You need to log in to post comments