"yes"; ?> Ei Yhtaan Todistajaa by Apulanta - guitar chords, guitar tabs and lyrics - chordie

Ei Yhtaan Todistajaa

Apulanta

Tabbed by plikk

|-----------------------------------------------------------------|
|---------------------------------3-------------------------------|
|---------------------------------2---2---------------------------|
|-2-----2-2-2-2--------0-0-0-0----0---0-0-0-0-0-------------------|
|-0-----3-0-2-3--2---2-3-0-2-3----------3-0-2-3----3---3-3-2~-----|
|----------------3---3-----------------------------1---1----------|
|-----------------------------------------------------------------|
|---------------------------------3-------------------------------|
|-2-------------------------------2---2---------------------------|
|-2--------------5----------------0---0------------3--------------|2X
|-0-----3-0-2-3--5---5-3-0-2-3----------3-0-2-3----3---3-0-2-3----|
|----------------3---3-----------------------------1--------------|


 AmCEmF
  Tänään on päivä jolloin mieleni on mutaa
 AmCEmF
  Amputoidut jalkani eivät käskystä futaa
 AmCEmF
  Onni löytyy divarista taivaalta satelliitista
 AmCEmF
  Nälkä kasvaa suuremmaksi kantajaansa

 AmGDmF
  Laimenna mut haalista mut poista kokonaan
 AmGDmF
  Ei saa jättää yhtään todistajaa       

|-----------------------------------------------------------------|
|---------------------------------3-------------------------------|
|-2-------------------------------2---2---------------------------|
|-2--------------5----------------0---0------------3--------------|2X
|-0-----3-0-2-3--5---5-3-0-2-3----------3-0-2-3----3---3-0-2-3----|
|----------------3---3-----------------------------1--------------|


 AmCEmF
  Todellisuus nousee vielä kerran viemäreistä
 AmCEmF
  Vuorovesi kääntyy peittää alleen toisen meistä

 AmGDmF
  Laimenna mut haalista mut poista kokonaan
 AmGDmF
  Ei saa jättää yhtään todistajaa       
 AmGDmF
  Tehdään tästä voiton päivä jäljet peitetään
 AmGDmF
  Ja huomenna on toisenlainen sää         

|-----------------------------------------------------------------|
|---------------------------------3-------------------------------|
|-2-------------------------------2---2---------------------------|
|-2--------------5----------------0---0------------3--------------|2X
|-0-----3-0-2-3--5---5-3-0-2-3----------3-0-2-3----3---3-0-2-3----|
|----------------3---3-----------------------------1--------------|

 AmGCF
|---------------------------------1-0-----1-0-----1-0-----1-0-----|
|-8-5-----8-5-----8-5-----8-5---------1-------1-------1-------1---|
|-----7-5-----7-5-----7-5-----7-5-------2-------2-------2-------2-|
|-----------------------------------------------------------------|
|-----------------------------------------------------------------|
|-----------------------------------------------------------------|


 AmGDmF
  Laimenna mut haalista mut poista kokonaan
 AmGDmF
  Ei saa jättää yhtään todistajaa       
 AmGDmF
  Tehdään tästä voiton päivä jäljet peitetään
 AmGDmF
  Ja huomenna on toisenlainen sää         
 AmGDmF
  Yeah yeah                             
 AmGDmF
  Yeah yeah                             
 Am
  Yeaaa


Am C Dm Em F G
variations - click chord images
Transpose chords:
Tuning:
Cool service:
View: Size:
A  A  A
Rating:
Layout:
  • Currently 3.3/5 Stars.
  • 1
  • 2
  • 3
  • 4
  • 5
 
Accuracy:
  • Currently 3.3/5 Stars.
  • 1
  • 2
  • 3
  • 4
  • 5
 
click stars to rate
Chordie recommends:
Learn how to play guitar at JamPlay.com
Songbook:
Login to add this song to your songbook
Support the artist
Preview/buy this song
MSN Music
Why this non-profit ad?

 
login to add comments/video/corrections