eToCache5 = ""; ?> Kaarmeet by Apulanta - guitar chords, guitar tabs and lyrics - chordie

Kaarmeet

Apulanta

 AmE
|-0-0-0-0-0-0-0-0-3-3-3-1-1-1-0-0---------------------------------|
|-1-1-1-1-1-1-1-1-1-1-1-1-1-1-1-1---------------------------------|
|-2-2-2-2-2-2-2-2-2-2-2-2-2-2-2-2-1-1-1-1-1-1-2-2-1-1-1-1-1-1-1-1-|
|-2-2-2-2-2-2-2-2-2-2-2-2-2-2-2-2-2-2-2-2-2-2-2-2-2-2-2-2-2-2-2-2-|
|-0-0-0-0-0-0-0-0-0-0-0-0-0-0-0-0-2-2-2-2-2-2-2-2-2-2-2-2-2-2-2-2-|
|---------------------------------0-0-0-0-0-0-0-0-0-0-0-0-0-0-0-0-|

mennään yhdessä tummaan metsään vajotaan yöhön
hellään pisarat kasvoilla
kaunaa enää en tahdo kantaa murtuneet kaikki
hampaat ja lihamme karrella
 AE
  ei olla                    kuilussa
ei liian syvällä

 AmE
  ei saa kysyä lahjan hintaa mitä se koskaan
auttaa kun tuli on irrallaan
siimaa kalalle täytyy antaa paremman näyttää
suuntaa kun tahto on polvillaan
 AE
  ei olla                    kuilussa
ei liian syvällä

 DA
|-2-2-2-2-2-2-2-2-2-2-2-2-2-2-2-2---------------------------------|
|-3-3-3-3-3-3-3-3-3-3-3-3-3-3-3-3-2-2-2-2-2-2-3-3-2-2-2-2-2-2-3-2-|
|-2-2-2-2-2-2-2-2-2-2-2-2-2-2-2-2-2-2-2-2-2-2-2-2-2-2-2-2-2-2-2-2-|
|-0-0-0-0-0-0-0-0-0-0-0-0-0-0-0-0-2-2-2-2-2-2-2-2-2-2-2-2-2-2-2-2-|
|---------------------------------0-0-0-0-0-0-0-0-0-0-0-0-0-0-0-0-|
|-----------------------------------------------------------------|

käärmeet silmissä
käärmeet mielessä

 AmE
|-0-0-0-0-0-0-0-0-3-3-3-1-1-1-0-0---------------------------------|
|-1-1-1-1-1-1-1-1-1-1-1-1-1-1-1-1---------------------------------|
|-2-2-2-2-2-2-2-2-2-2-2-2-2-2-2-2-1-1-1-1-1-1-2-2-1-1-1-1-1-1-1-1-|
|-2-2-2-2-2-2-2-2-2-2-2-2-2-2-2-2-2-2-2-2-2-2-2-2-2-2-2-2-2-2-2-2-|
|-0-0-0-0-0-0-0-0-0-0-0-0-0-0-0-0-2-2-2-2-2-2-2-2-2-2-2-2-2-2-2-2-|
|---------------------------------0-0-0-0-0-0-0-0-0-0-0-0-0-0-0-0-|

rauha on valettu mustaan rautaan laskettu kylmään
hautaan elämänjuuren luo
ei saa valoa näyttää lainkaan mitä se koskaan
auttaa valheen vaan paljastaa
 AE
  ei olla                    kuilussa
ei liian syvällä

 DA
|-2-2-2-2-2-2-2-2-2-2-2-2-2-2-2-2---------------------------------|
|-3-3-3-3-3-3-3-3-3-3-3-3-3-3-3-3-2-2-2-2-2-2-3-3-2-2-2-2-2-2-3-2-|
|-2-2-2-2-2-2-2-2-2-2-2-2-2-2-2-2-2-2-2-2-2-2-2-2-2-2-2-2-2-2-2-2-|
|-0-0-0-0-0-0-0-0-0-0-0-0-0-0-0-0-2-2-2-2-2-2-2-2-2-2-2-2-2-2-2-2-|
|---------------------------------0-0-0-0-0-0-0-0-0-0-0-0-0-0-0-0-|
|-----------------------------------------------------------------|

käärmeet silmissä
käärmeet mielessä

 AmE
  ei olla                    kuilussa
ei liian syvällä
ei olla kuilussa ei ei ei ei olla kuilussa ei liian syvällä
ei olla kuilussa ei ei ei ei olla kuilussa ei liian syvällä
ei ei ei ei olla kuilussa


A Am D E
variations - click chord images
Transpose chords:
Tuning:
Cool service:
View: Size:
A  A  A
Rating:
Layout:
  • Currently 3.1/5 Stars.
  • 1
  • 2
  • 3
  • 4
  • 5
 
Accuracy:
  • Currently 2.8/5 Stars.
  • 1
  • 2
  • 3
  • 4
  • 5
 
click stars to rate
Chordie recommends:
Learn to play guitar with video-based, online guitar lessons at JamPlay.com
Songbook:
Login to add this song to your songbook
Support the artist
Preview/buy this song
MSN Music
Why this non-profit ad?

 
login to add comments/video/corrections