Guitar Tabs, Chords and Lyrics


Crying Lightning   Arctic Monkeys



-------------------------------------------------------------------------------
	                       CRYING LIGHTNING - Arctic Monkeys
-------------------------------------------------------------------------------
Tabbed by: Ollie Milton
Email: dontkissyourgumsatmeblud@hotmail.co.uk

Tuning: Standard (EADGBe)

'Crying Lightning' is one of the four new songs t'arctics have been doing
live in Australia in the last fortnight. This is what I have worked out so far.
Please rate/comment. Thanks

INTRO/VERSE
Bass arr. for guitar

G|------------------------------------------------------------|
D|---------------------------------6--------------------------|
A|----------/8-8-8-\---------7-7-7----------/10-10-10-3-3-3---|
E|5-555-555----------5-555-5--------5-555-5-----------------4-|

Cookies Guitar Part:
e|----5----------7-----5-----8-------12-|
B|--5---LET RING-----5-----8------12----|
G|5----------------5-----9-----13-------|
D|--------------------------------------|
A|--------------------------------------|
E|--------------------------------------|

Alex's Guitar Part (couldnt catch it clearly, so here's my guess):
e|------|-----------------|------------------|-------------------------|
B|------|-----------------|------------------|-------------------------|
G|------|-----------------|------------------|-------------------------|
D|------|-------0/3-------|-------/3-2-------|-------2/5-3-2-0---------|
A|----3-|-0-2-3---------0-|-0-2-3----------0-|-0-2-3-----------3-333---|
E|1-4---|-----------1-4---|------------1-4---|-----------------------4-|

Bridge:
e|------------------|----------------------|-------||
B|------------------|----------------------|-------||
G|------------------|----------------------|-------||
D|------------------|----------------------|-------||
A|--------7-6----x8-|---7---6-------7------|-----2-||
E|5-5-5-8-----4-----|-8---5---5-8-5-----x4-|-1-4---||

Cookies Guitar For Verse 2:
e|5/13--5/12--5/10--8\4-|
B|----------------------|
G|----------------------|
D|----------------------|
A|----------------------|
E|----------------------|

Alex plays intro riff as shown above.

CHORUS:
Alex plays the chords F D and A

Cookie plays:
(Where the two lines are is where a chord should be but I haven't figured out yet :p)
e|------------10--------------5|
B|------------10--------------5|
G|---9-7------10----9-7-------5|
D|10-----7-10-----10-----10-7--|
A|-----------------------------|
E|-----------------------------|

Bridge:

e|----------------|
B|----------------|
G|----------------|
D|----------------|
A|------------7-6-|
E|4h5-5-5-5-8-----| x4

Solo: (Using these chords)
e|
B|10  13  15 13 10 8 6 5
G|
D|7   10  12 10 7  5 3 2
A|
E|

D|----------------------| 7
A|---7---6-------7------| 7  let ring
E|-8---5---5-8-5-----x4-| 5

Chorus to end.





Important: The song above is NOT stored on the Chordie server. The original song is hosted at www.guitaretab.com. Chordie works as a search engine and provides on-the-fly formatting. Chordie does not index songs against artists/composers will. To remove this song please click here.

This song is displayed as text-only. Transposing and tuning is only available for chordpro-songs.

Login - add to songbook

Rating click stars to rate

Layout
Accuracy

SHARE PAGE  




You need to log in to post comments