Guitar Tabs, Chords and Lyrics


Angels Are Calling  Ari Koivunen

  [Em]               [Am]               [Bm7]               [Em]               [Am]                     
e--------------|--------------|--------------|--------------|--------------|
B--0-----------|--1-----------|--3-----------|--0-----------|--1-----------|
G--------0-----|--------0-----|--------2-----|--------0-----|--------2-----|
D-----2-----2--|-----2-----2--|-----4-----4--|-----2-----2--|-----2-----2--|
A--------------|--3-----------|--2-----------|--------------|--0-----------|
E--0-----------|--------------|--------------|--0-----------|--------------|



   [Am]               [Em]               [Bm7]                                                 
e--------------|--------------|--------------||
B--1-----------|--5-----------|--4-----------||
G--------2-----|--------4-----|--------4-----||
D-----2-----2--|-----5-----5--|-----4-----4--||
A--0-----------|--3-----------|--2-----------||
E--------------|--------------|--------------|| 

[Em]   Your light was always [C]shining on my [Bm7]way
   There are so many [Em]things I'd like to [Am]say
So many words were left unsaid
   Be[Em]fore you flew a[B]way

[Em]   So in my heart I'm [C]sending you my [Bm7]love
   I ´m giving it [Em]wings so it can [Am]fly
   and reach you where ever you [Em]are [B]
   And the [Am]years go by
   Still the [C]years go by
   For[Bm7]ever

   [Em]Angels are [Am]calling
   [D]Heaven is [Bm7]crying
[Em]   Crying tears of [Am]blood ´cause it was [Em]not your [Bm7]time
Angels are calling
Hard rain is falling
Covering my tears and my pain
   [Em]Calling

You used to play in the summers in the grass
I always thought of you fragile as glass
Your *memory* is all that I now have

Some things here are so hard to understand
I thank you for your love and take your hand
Some of us down here are born as angels

And the years go by
Still the years go by forever

Angels are calling
Heaven is crying
Crying tears of blood ´cause it was not your time

Angels are calling
Hard rain is falling
Covering my tears and my pain


I hope it will work for you, or atleast help you to play this song.

Important: The song above is NOT stored on the Chordie server. The original song is hosted at www.guitaretab.com. Chordie works as a search engine and provides on-the-fly formatting. Chordie does not index songs against artists'/composers' will. To remove this song please click here.

Text color:
Chord color:
Chord grids: 
Font size:    
Page size: 

Am B Bm7 C D Em
variations - click chord images

Login - add to songbook

Transpose chords

Tuning

Rating click stars to rate

Layout
Accuracy

SHARE PAGE  




You need to log in to post comments