Guitar Tabs, Chords and Lyrics


El Problema  Ricardo Arjona

-------------------------1------------0---------------1---|


--0h-1-1---0-1---1---------1-0h-1-1-----0-1---1---------1-|


--2----2---0-2-----2---2-----2----2-------2-----2---2-----|

---------------------3----------------------------3-------|
--0------2-------------------0------2---------------------|
-------------1-1--------------------------1-1-------------|
-------------------------1------------0---------------1---|
--0h-1-1---0-1---1---------1-0h-1-1-----0-1---1---------1-|
--2----2---0-2-----2---2-----2----2-------2-----2---2-----|
---------------------3----------------------------3-------|
--0------2-------------------0------2---------------------|
-------------1-1--------------------------1-1-------------|
-------------0-------|
-------0-------0-----|
-----2---2-----------|
---2-------2---------|
-0-------------------|
---------------------|
-------------0-------|
-------0-------0-----|
-----0---0-----------|
---2-------2---------|
-2-------------------|
---------------------|
-------------1-------|
-------1-------1-----|
-----2---2-----------|
---3-------3---------|
---------------------|
-1-------------------|
---------------------|
-------1-------0-----|
-----2-------0-------|
---2-------2---------|
-0-------2-----------|
---------------------|
E[C]l problema no es probl[G]ema,
e[F]l problema es que me du[C]ele.
E[Am]l problema no es que mie[G]ntas,
F Introducción.
el problema es que te creo.

E[Am]l problema no es que jueg[E]ues,
[F]el problema es que es co[Am]nmi[E]go.
S[Am]i me gustaste por ser libr[E]e.
¿[F]Quien soy yo para camb[Am]iar[E]te?
S[C]i me quede queriendo sol[G]o.
¿[F]Como hacer para obliga[C]rte?
E[Am]l problema no es quere[E]rte,
F Am E F junto con Intro.
es que tu no sientas lo mismo.


CORO.

¿[C]Y cómo deshacerme [G]de ti

si no te tengo?
¿[E]Cómo alejarme de [Am]ti

si estas tan lejos?
¿[F]Cómo encontrarle un pestaña
a lo que nunca tuvo oj[C]os?

¿Cómo encontrarle plataformas

a lo que siempre fue un barranco?

¿Cómo encontrar en la alacena
los besos que no me di[G]ste?


¿Y [C]cómo deshacerme de [G]ti
si no te tengo?
C[E]ómo alejarme de t[Am]i

si estas tan lejos?
Y[F] es que el problema no es cambiar[G]te,
Am E F junto con intro
el problema es que no quiero.

E[Am]l problema no es que duel[E]a,
F Am e
el problema es que me gusta.
E[Am]l problema no es el dañ[E]o,
e[F]l problema son las huellas[Am].  [E]  [C]
El problema no es lo que h[G]aces,
e[F]l problema es que lo olv[C]ido.
E[Am]l problema no es que diga[G]s,
e[F]l problema es lo que callas. [Am]   [E]  [F]

CORO (dos veces)

El problema no fue hallarte,
el problema es olvi[C]darte
El problema no es que mientas,
el problema es que te creo.
El problema no es cambiarte
el problema es que no quiero,
El problema no es quererte,
es que tu no sientas lo mismo
El problema no es que jue[G]gues,
el problema es que es conm[Am]igo[E]. [F]

Outtro.

----------12-------------------12----------------------|
-------13-------13----------13-------13----------------|
----14-------14----14----14-------14----14-------------|
-14-------------------14-------------------------------|
-------------------------------------------------------|
-------------------------------------------------------|


bueno espero q les guste !!!!

Important: The song above is NOT stored on the Chordie server. The original song is hosted at www.guitaretab.com. Chordie works as a search engine and provides on-the-fly formatting. Chordie does not index songs against artists'/composers' will. To remove this song please click here.

Text color:
Chord color:
Chord grids: 
Font size:    
Page size: 

Am C E F G
variations - click chord images

Login - add to songbook

Transpose chords

Tuning

Rating click stars to rate

Layout
Accuracy

SHARE PAGE  




You need to log in to post comments