Guitar Tabs, Chords and Lyrics


El Y Ella  Ricardo Arjona

      [G]                 [G]Ella es de la Habana          [D7/D#]El de Nueva York
E-|--------3-------||--------3---------------3----------------2--------|
B-|----0-------0---||----0-------0-------0-------0--------1-------1----|
G-|--0---0---0---0-||--0---0---0---0---0---0---0--------2---2---2---2--|
D-|----------------||------------------------------0-1-----------------|
A-|----------------||--------------------------------------------------|
E-|-3--------------||-3---------------3--------------------------------|

    [Em]                   [C]Ella baila en  Tro[G]picana       [D7/D#]A ?l le gusta el rock
E-|-------3-2----------------3---------------3----------------2-------|
B-|-----0-----0----------1-------1-------0-------0--------1-------1---|
G-|---0---------0------0---0---0---0---0---0---0--------2---2---2---2-|
D-|-2-------0--------------------------------------0-1----------------|
A-|----------------2-3------------------------------------------------|
E-|-----------------------------------3-------------------------------|

Ella vende besos en un burdel
E-|-------3-2----------------3--------------3---------2--------3-2-----|
B-|-----0-----0----------1-------1--------0---------1--------0-----0---|
G-|---0---------0------0---0---0---0----0---------2--------0---------0-|
D-|-2-------0----------------------------------1---------2-------0-----|
A-|----------------2-3-------------------------------------------------|
E-|-----------------------------------3--------------------------------|

mientras el se grad?a en UCLA
E-|-----------3-----------------3----------------3--------3---------3--3--2--|
B-|-------1-------1---------0-------0----------0------0-----------1----------|
G-|-----0---0---0---0-----0---0---0---0------0----------0-------0------------|  Repetir
D-|--------------------------------------------------------------------0-----|
A-|-2-3---------------------------------------------2--------3---------------|
E-|---------------------3------------------3---------------------------------|

****
Ella es medio marxista
El es republicano
Ella quiere ser artista
El odia a los cubanos
El cree en la estatua de la libertad
Y ella en su vieja Habana de la soledad.
El ha comido hamburguesas
Ella moros con cristianos
El champange con sus fresas
Ella un mojito cubano
Ella se fue de gira a Yucat?n
Y el de vacaciones al mismo lugar.
Mulata hasta los pies
El rubio como el sol
Ella no habla ingl?s
Y el menos espa?ol
El fu? a tomar un trago sin sospechar
Que iba a encontrar el amor en aquel lugar
*CORO*
     [G]Lo que las ideol[d7/d#]og?as dividen al homb[Em]re
   [C]  El amor con sus [G]hilos los une en su [D]nombre.
     [G]Ella mueve su ci[d7/d#]ntura al ritmo de un [Em]cantar
     Y ?l se va divorcian[C]do del T?o Sam[G]
     El se refugia en [d7/d#]su piel la quiere para[Em] ?l
     Y ella se va o[C]lvidando de Fide[G]l
   [C]  Que sab?an Lenin y [D]Lincoln del amor[G]
   [C]  Qu? saben Fidel y C[D]linton del amor.[G]
Ella se sienta en su mesa
El tiembla de la emoci?n
Ella se llama Teresa
Y ?l se llama John
Ella dice "Hola chico"
El contesta "Hello"
A ella no le para el pico
El dice "speak slow".
El se guard? su bandera
Ella olvid? los conflictos
El encontr? la manera
De que el amor salga invicto
La tom? de la mano y se la llev?
El yankee de la cubana se enamor?.
--------

*Coro*
--------

Ahora viven en Par?s
Buscaron tierra neutral
Ella logr? ser actriz
El es un tipo normal
Caminan de la mano
Calle Campos El?seos
Como quien se burla
del planeta y sus vicios.

Important: The song above is NOT stored on the Chordie server. The original song is hosted at www.guitaretab.com. Chordie works as a search engine and provides on-the-fly formatting. Chordie does not index songs against artists'/composers' will. To remove this song please click here.

Text color:
Chord color:
Chord grids: 
Font size:    
Page size: 

C D D7/D# Em G
variations - click chord images

Login - add to songbook

Transpose chords

Tuning

Rating click stars to rate

Layout
Accuracy

SHARE PAGE  




You need to log in to post comments