Guitar Tabs, Chords and Lyrics


A Quick Little Flight   Armor For Sleep



A Quick Little Flight - Armor For Sleep

This is my first tab.
I noticed a lot of incorrect tabs around on this song.
I'm not 100% sure if this is perfect or not but it sounds nice to me :).
Hope you enjoy.

~ = Let ring for a bit :).

Ok so...

Firstly,

E|----10~------------------|
B|-----------10--12~--10~--|
G|--------12---------------|  Played 6 times
D|-------------------------|    I think :).
A|-------------------------|
E|-------------------------|

Then,

E|-----------------------12~--10~----|
B|-----------12--10------------------|
G|----9--12----------12--------------|
D|-----------------------------------|
A|-----------------------------------|
E|-----------------------------------|

E|-----------------------------------|
B|-----------12--10------13~--12~----|
G|----9--12----------12--------------|
D|-----------------------------------|
A|-----------------------------------|
E|-----------------------------------|

Then,

E|----10~------------------|
B|-----------10--12~--10~--|
G|--------12---------------|  Played 4 times
D|-------------------------|    I think :).
A|-------------------------|
E|-------------------------|

Finally,


E|-----------------------12~--10~----|
B|-----------12--10------------------|
G|----9--12----------12--------------|
D|-----------------------------------|
A|-----------------------------------|
E|-----------------------------------|

E|-----------------------------------|
B|-----------12--10------13~--12~----|
G|----9--12----------12--------------|
D|-----------------------------------|
A|-----------------------------------|
E|-----------------------------------|

Repeated till the end of the song.
That's it :).


Important: The song above is NOT stored on the Chordie server. The original song is hosted at www.guitaretab.com. Chordie works as a search engine and provides on-the-fly formatting. Chordie does not index songs against artists'/composers' will. To remove this song please click here.

This song is displayed as text-only. Transposing and tuning is only available for chordpro-songs.

Login - add to songbook

Rating click stars to rate

Layout
Accuracy

SHARE PAGE  




You need to log in to post comments