Chordie logo

Pillar   Armored Saint



----------------------------------------------------------------------------
			     The Pillar - Armored Saint
----------------------------------------------------------------------------
Tabbed by:metalhead9000

Tuning:EADGBe tuned 1/2 step down

Intro    Riff 1                             x4
e|-------------------------------------------:---------------------------|
B|-------------------------------------------:---------------------------|
G|-------------------------------------------:---------------------------|
D|-----------------------------------5-7/8---:-----------------5-7/8-----|
A|-------7h8p7-----------------5-5h7---------:-----------5-5h7-----------|
E|---0-0-------0-0-5b7-0-0-5h7---------------:---0-0-5h7-----------------|
     * *       * *     * *                     * *
         Riff 2        x8   Riff 3
e|----------------------:---------------------0--------------------------|
B|----------------------:------------11----11----------------------------|
G|---9------------------:---7/10-10-----10------7/10-10------------------|
D|---9-10-7-7/9-9-9-9---:---7/10-10-------------7/10-10------------------|
A|---7-8--5-5/7-7-7-7---:---5/8--8--------------5/8--8--5-7-7-7-8-7-5----|
E|---0------------------:------------------------------------------------|
                * * 

e|--------------------0--------------------------------------------------|
B|-----------11----11----------------------------------------------------|
G|---7/10-10----10------7-10-10-9-7---10-9-12---10-12---9-9-9-9-9-9------|
D|---7/10-10------------7-10-10-9-7---10-9-12---10-12---9-9-9-9-9-9------|
A|---5/8--8-------------5-8--8--7-5---8--7-10---8--10---7-7-7-7-7-7------|
E|----------------------------------------------------0-0-0-0-0-0-0------|
                                                      * * * * * * *

e|-----------------------------------------------------------------------|
B|---------17-------------------------------------------17---------------|
G|---10-12-16-9-9-9-9-9-9---10-12---9-9-9-9-9-9---10-12-16-9-9-9-9-9-9---|
D|---10-12-14-9-9-9-9-9-9---10-12---9-9-9-9-9-9---10-12-14-9-9-9-9-9-9---|
A|---8--10----7-7-7-7-7-7---8--10---7-7-7-7-7-7---8--10----7-7-7-7-7-7---|
E|------------0-0-0-0-0-0---------0-0-0-0-0-0-0------------0-0-0-0-0-0---|
              * * * * * *         * * * * * * *            * * * * * *

Riff Order:

Riff 1
Riff 2
Riff 3
Riff 2
Riff 3
Solo
Riff 2
Second Half of Riff 2
I Don't Know This Riff
Solo


Important: The song above is NOT stored on the Chordie server. The original song is hosted at www.guitaretab.com. Chordie works as a search engine and provides on-the-fly formatting. Chordie does not index songs against artists/composers will. To remove this song please click here.

This song is displayed as text-only. Transposing and tuning is only available for chordpro-songs.

Login - add to songbook

Rating click stars to rate

Layout
Accuracy

SHARE PAGE  

You need to log in to post comments