Another Universe

Arno Carstens

e|-----3--3--0--0--0--0--0--3-----|

B|-----3--3--3--3--3--3--3--3-----|
G|-----0--0--0--0--0--0--0--0-----|
D|-----0--0--0--0--0--0--0--0-----|
A|-----2--2--2--2--2--2--2--2-----|
E|-----3--3--3--3--3--3--3--3-----|

 GEmAmD
e|----3---------------0-----2-----|
B|----3---------------1-----3-----|
G|----0------0--------2-----2-----|
D|----0------2--------2-----0-----|
A|----2------2--------------------|
E|----3------0--------------------|


 G
 Let's take the final bow
 Em
 Let's make the silent sign
 Am
 Nobody needs to know
 D
 Where we're off to

 G
 We're invisible alive
 Em
 We're the whispers in the scream
 Am
 We're not living in the west
 D
 and we're not coming from the east

G (strum once and let ring)
Sharp is the knife
D (strum once and let ring)
And alive is the night
 G
 I'm gonna slit the throat of the holy goat
 Em
 Ceremony to the UFO
 Am
 And SMS 'em where we wanna go
 D
 Oooh

 GEm
 From the galaxy of blues
 AmD
 to the universe we choose
 GEm
 No more crying and just maybe
 AmD
 somebody to hold  (play twice)

(chours)
 G
 Let's play the metal music slow
 Em
 Leave the car on the highway and go
 Am
 Nobody needs to know
 D
 Another Universe

 G
 Make a distance between us and them
 Em
 Lonely, loney never again
 Am
 A galaxy to explore
 D
 Don't wanna return to a world at war

(chours)
 GEm
 From the galaxy of blues
 AmD
 to the universe we choose
 GEm
 No more crying and just maybe
 AmD
 somebody to hold  (play twice)

Visit his site: www.arnocarstens.com
----------------------------------------------------------------------------

This file is the author's own work and represents their
interpretation of the song.
You may only use this file for private study, scholarship, or
research.
----------------------------------------------------------------------------				



Am D Em G
variations - click chord images
Transpose chords:
Tuning:
Cool service:
View: Size:
A  A  A
Rating:
Layout:
  • Currently 3.5/5 Stars.
  • 1
  • 2
  • 3
  • 4
  • 5
 
Accuracy:
  • Currently 3.8/5 Stars.
  • 1
  • 2
  • 3
  • 4
  • 5
 
click stars to rate
Chordie recommends:
Learn to play guitar with video-based, online guitar lessons at JamPlay.com
Songbook:
Login to add this song to your songbook
Support the artist
Preview/buy this song
MSN Music
Why this non-profit ad?

 
login to add comments/video/corrections