Carousel

As Tall As Lions

e||---------------------------------------------|

B||---------------------------------------------|
G||---------------------------------------------|
D||----7--5-5--7--5--5--------------------------|
A||-----------------7---7-5-7-5---3-5-3---------|
E||-------------------------------------5-------|

 FM7GAm
 Hey, I thought of you today
 FM7
I thought that I should tell you
 GAm
 How much I miss you
 FM7
Remember what you used to say
 Am
 Friends forever, I hope that we'll remain this way... oh...

Chorus
 FM7GAmFM7
 All this time, I've been thinking ‘bout the way we used to play / the promises we made...
 GAmFM7
 You're everywhere I go I can't escape you,
 GAm
 When I close my eyes I see you
 FM7GAm
Even in my sleep I dream of you... Oh... I miss you...

Verse II
Can we put the blame on the changing times?
Where have all the years gone by?
So fast, so young,
So sure that this will never end
I'll always stand by you, my friend
But forever was just too long...

Repeat Chorus:

Instrumental:
Guitar1: FM7 G Am 4x
Guitar2:
e||---5~---7-8-7---5-5~-----------------------------------------|
B||-------------5-5----8-8-6-6-6-5-5-5-3-3-3-5-6-55/8-8~--------|
G||-------------------------------------------------------------|
D||-------------------------------------------------------------|
A||-------------------------------------------------------------|
E||-------------------------------------------------------------|
e||---5~----7-8-7-----5-5~--------------------------------------|
B||--------------5-5------8-8-6-6-6-5-5-5-3-3-3-5-6-5~----------|
G||-------------------------------------------------------------|
D||-------------------------------------------------------------|
A||-------------------------------------------------------------|
E||-------------------------------------------------------------|


Repeat Chorus: 2x

-end-


Am Fm7 G
variations - click chord images
Transpose chords:
Tuning:
Cool service:
View: Size:
A  A  A
Rating:
Layout:
  • Currently 0/5 Stars.
  • 1
  • 2
  • 3
  • 4
  • 5
 
Accuracy:
  • Currently 3.7/5 Stars.
  • 1
  • 2
  • 3
  • 4
  • 5
 
click stars to rate
Chordie recommends:
Learn to play songs at Jamplay.com with video guitar lessons
Songbook:
Login to add this song to your songbook
Support the artist
Preview/buy this song
MSN Music
Why this non-profit ad?

 
login to add comments/video/corrections