Masdan Mo Ang Kapaligiran

Asin

e |-2----3-2-0--------0-2-3--5-3-5-3-2-3-2---------0--0-2-0-2----|
b |-3----------3--2-3----------------------3-2--2-3---------3----|
g |-2-------------------------------------------------------2----|
d |--------------------------------------------------------------|
a |--------------------------------------------------------------|
e |--------------------------------------------------------------|
e |--------|
b |--------|
g |--------|
d |--------|
a |---0-2--|
e |-3------|


Guitar 2
D – G – A7 - D

VERSE 1
 DG
 Wala ka bang napapansin  
 A7D
Sa iyong mga kapaligiran 
 DG
 Kay dumi na ng hangin  
 A7D
Pati na ang ilog natin     

(Ref1)
e |--------|
b |--------|
g |--------|
d |-0------|
a |---4-2--|
e |--------|


Chorus1:
 BmG
 Hindi nga masama ang pag-unlad
A7 D (Ref1)
At malayo layo na rin ang ating narating
 BmG
 Ngunit masdan mo ang tubig
 A7D
Sa dagat dati kulay asul ngayo'y naging itim
Verse 2
(Do verse 1 Chords)
Ang mga duming ating ikinalat sa hangin
Sa langit wag na nating paabutin
Upang kong tayo'y pumanaw man sariwang hangin
Sa langit natin matitikman

Chorus 2:
Meron lang akong hinihling
Sa aking pagpanaw sana ay tag-ulan
Gitara ko ay aking dadalhin
Upang sa ulap na lang tayo mag-kantahan

Adlib
(Do intro)

Ang mga batang ngayon lang isinilang
May hangin pa kayang matitikman
May mga puno pa kaya silang aakyatin
May mga ilog pa kayang lalanguyan

Chorus 3:

Lahat ng bagay na narito sa lupa
Biyayang galling sa Diyos kahit nang ika'y wala pa
Ingatan natin at wag ng sirain pa
Pagkat pag kanyang binawi tayo'y mawawala na

Chorus 4:
 DG
e |-2----------3-2-0---------0-2-3-|
b |-3-----------------3--2-3-------|
g |-2------------------------------|
d |--------------------------------|
a |--------------------------------|
e |--------------------------------|

Meron lang akong hinihiling

 A7D
e |-5-3-5-3-2-3-2-----------------0-2-0-2----|
b |------------------3-2--2-3-------------3--|
g |------------------------------------------|
d |------------------------------------------|
a |------------------------------------------|
e |------------------------------------------|

Sa aking pag-panaw sana ay tag-ulan

 DG
e |-2----------3-2-0---------0-2-3-|
b |-3-----------------3--2-3-------|
g |-2------------------------------|
d |--------------------------------|
a |--------------------------------|
e |--------------------------------|

Gitara ko ay aking dadalhin

 A7D
e |-5-3-5-3-2-3-2-----------------0-2-0-2----|
b |------------------3-2--2-3-------------3--|
g |------------------------------------------|
d |------------------------------------------|
a |------------------------------------------|
e |------------------------------------------|

Upang sa ulap na lang tayo magkantahan

e |-------2-3-5-7-5--|
b |-2-3-5---------7--|
g |---------------7--|
d |---------------7--|
a |---------------5--|
e |------------------|


This song is dedicated to our mother nature…

A7 Bm D G
variations - click chord images
Transpose chords:
Tuning:
Cool service:
View: Size:
A  A  A
Rating:
Layout:
  • Currently 3.1/5 Stars.
  • 1
  • 2
  • 3
  • 4
  • 5
 
Accuracy:
  • Currently 2.9/5 Stars.
  • 1
  • 2
  • 3
  • 4
  • 5
 
click stars to rate
Chordie recommends:
Get acoustic guitar lessons and electric guitar lessons at JamPlay.com
Songbook:
Login to add this song to your songbook
Support the artist
Preview/buy this song
MSN Music
Why this non-profit ad?

 
login to add comments/video/corrections