Chordie logo

A Lesson In Charades   Asteria




A lesson in Charades


Intro/Verse Guitar I    (Play Nine times)  (Then play this)
E|---------2-------|--2-0-|    |---------2-----2-----2----|
B|---3-------3---3-|------|    |---3-------3-----3-----3--|
G|-----0-------0---|------|    |-----0--------------------|
D|-0-----0---------|(Then-|    |-0-----0-----0-----0-----0|
A|(play four times)|-this)|    |--------------------------|
E|-----------------|------|    |--------------------------|


Guitar II          (Play Ten times)
E|----------------------------|
B|----------------------------|
G|----------------------------|
D|-0-0---0-0------------------|
A|-2-2---2-2---0h2--2-2--2-2--|
E|------------------3-3--3-3--|


Guitar III   (Comes in after Guitar I plays six times) (Plays four times)
E|------------|
B|------------|
G|--44--------|
D|--44----55--|
A|--22----55--|
E|--------33--|


Chorus All Guitars (Plays twice) (Then ends on this)
E|-------------------------------|  |-----|
B|-------------------------------|  |-----|
G|---------66666--4------5-------|  |--4--|
D|-555555--66666--4-x16--5-x16---|  |--4--|
A|-555555--44444--2------3-------|  |--2--|
E|-333333------------------------|  |-----|


Verse Guitar I     (Play six times)
E|---------2-------|--2-0-|    
B|---3-------3---3-|------|    
G|-----0-------0---|------|    
D|-0-----0---------|(Then-|    
A|(play four times)|-this)|    


Guitar II          (Play four times)
E|----------------------------|
B|----------------------------|
G|----------------------------|
D|-0-0---0-0------------------|
A|-2-2---2-2---0h2--2-2--2-2--|
E|------------------3-3--3-3--|


Guitar III   (Comes in after Guitar I plays twice) 
E|-------------------| (Plays twice) |------------------| (plays twice)
B|-------------------|               |------------------|
G|--44---------------|               |--44--44----------|
D|--44----55---------|               |--44--44--55--55--|
A|--22----55-5-4-3-0-|               |--22--22--55--55--|
E|--------33---------|               |----------33--33--|


Chorus All Guitars (Plays twice) 
E|-------------------------------|  
B|-------------------------------|  
G|---------6------4-------5------|  
D|-5-------6-x16--4-x16---5-x16--|  
A|-5-x16---4------2-------3------|  
E|-3-----------------------------|  


Bridge Guitar I   (Plays four times)
E|---------------|      |-----------------|
B|---------------|      |-----------------|
G|--2------4-----|      |--2------7-7-7-7-|
D|--2-x16--4-x16-|      |--2-x16--7-7-7-7-|
A|--0------2-----|      |--0------5-5-5-5-|
E|---------------|      |-----------------|


Guitar II (Plays when Guitar I plays three times)
E|----------------------------------|
B|----------------------------------|
G|-3333-4444-5555-6666-----7-77-7-7-|
D|-xxxx-xxxx-xxxx-xxxx-----x-xx-x-x-|
A|-1111-2222-3333-4444-----5-55-5-5-|
E|----------------------------------|



Chorus All Guitars (Plays twice) 
E|-------------------------------|  
B|-------------------------------|  
G|---------6------4-------5------|  
D|-5-------6-x16--4-x16---5-x16--|  
A|-5-x16---4------2-------3------|  
E|-3-----------------------------|  


Outro Guitar I    (Plays till the end)
E|---------2-------|--2-0-|    
B|---3-------3---3-|------|    
G|-----0-------0---|------|    
D|-0-----0---------|(Then-|    
A|(play four times)|-this)|    
E|-----------------|------|    


Guitar II          (Play till the end)
E|----------------------------|
B|----------------------------|
G|----------------------------|
D|-0-0---0-0------------------|
A|-2-2---2-2---0h2--2-2--2-2--|
E|------------------3-3--3-3--|




Important: The song above is NOT stored on the Chordie server. The original song is hosted at www.guitaretab.com. Chordie works as a search engine and provides on-the-fly formatting. Chordie does not index songs against artists/composers will. To remove this song please click here.

This song is displayed as text-only. Transposing and tuning is only available for chordpro-songs.

Login - add to songbook

Rating click stars to rate

Layout
Accuracy

SHARE PAGE  

You need to log in to post comments