Chordie logo

Saddest Song  Ataris

[Gm]Eb [-]- [355333]x68886
[F]  [-]   [133211]                                

Intro: Bb--Gm--F--Eb (x2)


Piano: x2
e|-------------------------|-------------------------------------|
B|-10h11p10----------------|-10h11p10----------13--11---------11-|
G|----------10------12--10-|----------10----------------10-12----|
D|--------------12---------|---------------12--------------------|
A|-------------------------|-------------------------------------|
E|-------------------------|-------------------------------------|

then
e|-10h11p10-----------------|---------------|
B|-----------11------13--11-|---------------|
G|---------------12---------|-8-------------|
D|--------------------------|-8-------------|
A|--------------------------|-6---6/8h10--8-|
E|--------------------------|---------------|



Verse 1:
[Bb]  Only two more [Gm]days, until your [F]birthday
Yester[Eb]day was mine
[Bb]  You'll be turning [Gm]five I know what it's [F]like
growing up without your [Eb]father in your life

Refrain:
[Gm]So I pre[F]tend I'm [Bb]doing all I [Eb]can
And I [Gm]hope someday you'll [F]find it in your [Eb]heart
[Gm]To unders[F]tand Why [Bb]I'm not a[Eb]round
And for[Gm]give me for not [F]being in your [Eb]life


Chorus:
I remember [Bb]waiting For you to come
Remember [Gm]waiting For you to call
Remember [F]waiting there to find nothing at [Eb]all
(repeat)


(Repeat Intro once)

Verse 2:
[Bb]  Maybe some[Gm]day you really get to [F]know me
not just the letters [Eb]read to you
[Bb]  I pray I get the [Gm]chance To make it up to [F]you
We got a lot of [Eb]catching up to do


(Repeat refrain and chorus)


Do Chorus Chords:
Eb(hold)
Waiting for you to come (forgive me, I'm so sorry, I will let it up to you)

Important: The song above is NOT stored on the Chordie server. The original song is hosted at www.guitaretab.com. Chordie works as a search engine and provides on-the-fly formatting. Chordie does not index songs against artists/composers will. To remove this song please click here.

Bb Eb F Gm
variations - click chord images

Login - add to songbook

Transpose chords

Tuning

Rating click stars to rate

Layout
Accuracy

SHARE PAGE  

You need to log in to post comments